  0
SECTION
  2
HEADER
  9
$ACADVER
  1
AC1009
  9
$INSBASE
 10
0
 20
0
 30
0
  9
$EXTMIN
 10
0
 20
0
  9
$EXTMAX
 10
800000
 20
565856
  9
$LIMMIN
 10
0
 20
0
  9
$LIMMAX
 10
800000
 20
565856
  9
$LTSCALE
 40
8
  0
ENDSEC
  0
SECTION
  2
TABLES
  0
TABLE
  2
LTYPE
 70
     9
  0
LTYPE
  2
CONTINUOUS
 70
    64
  3
実線
 72
    65
 73
     0
 40
0.0
  0
LTYPE
  2
DASHED1
 70
    64
  3
--  --  --  --  --  --  --  --  
 72
    65
 73
     2
 40
2.5
 49
1.25
 49
-1.25
  0
LTYPE
  2
DASHED2
 70
    64
  3
----    ----    ----    ----    
 72
    65
 73
     2
 40
5.0
 49
2.5
 49
-2.5
  0
LTYPE
  2
DASHED3
 70
    64
  3
------  ------  ------  ------  
 72
    65
 73
     2
 40
5.0
 49
3.75
 49
-1.25
  0
LTYPE
  2
CENTER1
 70
    64
  3
----- - ----- - ----- - ----- - 
 72
    65
 73
     4
 40
10.0
 49
6.25
 49
-1.25
 49
1.25
 49
-1.25
  0
LTYPE
  2
CENTER2
 70
    64
  3
----------  --  ----------  --  
 72
    65
 73
     4
 40
20.0
 49
12.5
 49
-2.5
 49
2.5
 49
-2.5
  0
LTYPE
  2
PHANTOM1
 70
    64
  3
--- - - --- - - --- - - --- - - 
 72
    65
 73
     6
 40
10.0
 49
3.25
 49
-1.25
 49
1.25
 49
-1.25
 49
1.25
 49
-1.25
  0
LTYPE
  2
PHANTOM2
 70
    64
  3
--------  -  -  --------  -  -  
 72
    65
 73
     6
 40
20.0
 49
10.0
 49
-2.5
 49
1.25
 49
-2.5
 49
1.25
 49
-2.5
  0
LTYPE
  2
DOT
 70
    64
  3
-   -   -   -   -   -   -   -   
 72
    65
 73
     2
 40
2.5
 49
0.625
 49
-1.875
  0
LTYPE
  2
DUMMY
 70
    64
  3
ダミー
 72
    65
 73
     0
 40
0.0
  0
LTYPE
  2
RAND1
 70
    64
  3
ランダム線1
 72
    65
 73
     4
 40
10.0
 49
1.0
 49
-2.0
 49
3.0
 49
-4.0
  0
LTYPE
  2
RAND2
 70
    64
  3
ランダム線2
 72
    65
 73
     4
 40
14.0
 49
2.0
 49
-3.0
 49
4.0
 49
-5.0
  0
LTYPE
  2
RAND3
 70
    64
  3
ランダム線3
 72
    65
 73
     4
 40
18.0
 49
3.0
 49
-4.0
 49
5.0
 49
-6.0
  0
LTYPE
  2
RAND4
 70
    64
  3
ランダム線4
 72
    65
 73
     4
 40
22.0
 49
4.0
 49
-5.0
 49
6.0
 49
-7.0
  0
LTYPE
  2
RAND5
 70
    64
  3
ランダム線5
 72
    65
 73
     4
 40
26.0
 49
5.0
 49
-6.0
 49
7.0
 49
-8.0
  0
LTYPE
  2
LONG1
 70
    64
  3
----------  --  ----------  --  
 72
    65
 73
     4
 40
40.0
 49
32.5
 49
-2.5
 49
2.5
 49
-2.5
  0
LTYPE
  2
LONG2
 70
    64
  3
--------  -  -  --------  -  -  
 72
    65
 73
     6
 40
40.0
 49
30.0
 49
-2.5
 49
1.25
 49
-2.5
 49
1.25
 49
-2.5
  0
LTYPE
  2
LONG3
 70
    64
  3
+++++++++++++++..+++++++++++++++
 72
    65
 73
     2
 40
40.0
 49
37.5
 49
-2.5
  0
LTYPE
  2
LONG4
 70
    64
  3
+++++++++++++++..+++++++++++++++
 72
    65
 73
     2
 40
80.0
 49
75.0
 49
-5.0
  0
LTYPE
  2
LONG5
 70
    64
  3
----------  --  ----------  --  
 72
    65
 73
     4
 40
60.0
 49
37.5
 49
-7.5
 49
7.5
 49
-7.5
  0
LTYPE
  2
dashed
 70
   64
  3
-------   -------------   ------
 72
   65
 73
    2
 40
7.5
 49
6
 49
-1.5
  0
LTYPE
  2
dashed_spaced
 70
   64
  3
----        --------        ----
 72
   65
 73
    2
 40
12
 49
6
 49
-6
  0
LTYPE
  2
long_dashed_dotted
 70
   64
  3
------------- --- --------------
 72
   65
 73
    4
 40
15.25
 49
12
 49
-1.5
 49
0.25
 49
-1.5
  0
LTYPE
  2
long_dashed_double-dotted
 70
   64
  3
----------- --- --- ------------
 72
   65
 73
    6
 40
17
 49
12
 49
-1.5
 49
0.25
 49
-1.5
 49
0.25
 49
-1.5
  0
LTYPE
  2
long_dashed_triplicate-dotted
 70
   64
  3
--------- --- --- --- ----------
 72
   65
 73
    8
 40
18.75
 49
12
 49
-1.5
 49
0.25
 49
-1.5
 49
0.25
 49
-1.5
 49
0.25
 49
-1.5
  0
LTYPE
  2
dotted
 70
   64
  3
   -       -       -       -    
 72
   65
 73
    2
 40
1.75
 49
0.25
 49
-1.5
  0
LTYPE
  2
chain
 70
   64
  3
-------------- -- --------------
 72
   65
 73
    4
 40
18.5
 49
12
 49
-1.5
 49
3.5
 49
-1.5
  0
LTYPE
  2
chain_double_dash
 70
   64
  3
------------ -- -- -------------
 72
   65
 73
    6
 40
23.5
 49
12
 49
-1.5
 49
3.5
 49
-1.5
 49
3.5
 49
-1.5
  0
LTYPE
  2
dashed_dotted
 70
   64
  3
-----------     -     ----------
 72
   65
 73
    4
 40
9.25
 49
6
 49
-1.5
 49
0.25
 49
-1.5
  0
LTYPE
  2
double-dashed_dotted
 70
   64
  3
------   -----------   -   -----
 72
   65
 73
    6
 40
16.75
 49
6
 49
-1.5
 49
6
 49
-1.5
 49
0.25
 49
-1.5
  0
LTYPE
  2
dashed_double-dotted
 70
   64
  3
---------    -    -    ---------
 72
   65
 73
    6
 40
11
 49
6
 49
-1.5
 49
0.25
 49
-1.5
 49
0.25
 49
-1.5
  0
LTYPE
  2
double-dashed_double-dotted
 70
   64
  3
-----   ---------   -   -   ----
 72
   65
 73
    8
 40
18.5
 49
6
 49
-1.5
 49
6
 49
-1.5
 49
0.25
 49
-1.5
 49
0.25
 49
-1.5
  0
LTYPE
  2
dashed_triplicate-dotted
 70
   64
  3
-------    -    -    -    ------
 72
   65
 73
    8
 40
12.75
 49
6
 49
-1.5
 49
0.25
 49
-1.5
 49
0.25
 49
-1.5
 49
0.25
 49
-1.5
  0
LTYPE
  2
double-dashed_triplicate-dotted
 70
   64
  3
-----  ---------  -  -  -  -----
 72
   65
 73
   10
 40
20.25
 49
6
 49
-1.5
 49
6
 49
-1.5
 49
0.25
 49
-1.5
 49
0.25
 49
-1.5
 49
0.25
 49
-1.5
  0
LTYPE
  2
undefined
 70
   64
  3
--------------------------------
 72
   65
 73
    0
 40
0
  0
LTYPE
  2
_
 70
   64
  3
                                
 72
   65
 73
    0
 40
0
  0
LTYPE
  2
__18
 70
   64
  3
                                
 72
   65
 73
    0
 40
0
  0
LTYPE
  2
__19
 70
   64
  3
                                
 72
   65
 73
    0
 40
0
  0
LTYPE
  2
__20
 70
   64
  3
                                
 72
   65
 73
    0
 40
0
  0
LTYPE
  2
__21
 70
   64
  3
                                
 72
   65
 73
    0
 40
0
  0
LTYPE
  2
__22
 70
   64
  3
                                
 72
   65
 73
    0
 40
0
  0
LTYPE
  2
__23
 70
   64
  3
                                
 72
   65
 73
    0
 40
0
  0
LTYPE
  2
__24
 70
   64
  3
                                
 72
   65
 73
    0
 40
0
  0
LTYPE
  2
__25
 70
   64
  3
                                
 72
   65
 73
    0
 40
0
  0
LTYPE
  2
__26
 70
   64
  3
                                
 72
   65
 73
    0
 40
0
  0
LTYPE
  2
__27
 70
   64
  3
                                
 72
   65
 73
    0
 40
0
  0
LTYPE
  2
__28
 70
   64
  3
                                
 72
   65
 73
    0
 40
0
  0
LTYPE
  2
__29
 70
   64
  3
                                
 72
   65
 73
    0
 40
0
  0
LTYPE
  2
__30
 70
   64
  3
                                
 72
   65
 73
    0
 40
0
  0
LTYPE
  2
__31
 70
   64
  3
                                
 72
   65
 73
    0
 40
0
  0
LTYPE
  2
__32
 70
   64
  3
                                
 72
   65
 73
    0
 40
0
  0
ENDTAB
  0
TABLE
  2
STYLE
  5
3
100
AcDbSymbolTable
 70
     1
  0
STYLE
  5
10
100
AcDbSymbolTableRecord
100
AcDbTextStyleTableRecord
  2
STANDARD
 70
     0
 40
0.0
 41
1.0
 50
0.0
 71
     0
 42
0.2
  3
txt
  4
bigfont.shx
  0
STYLE
  5
26
100
AcDbSymbolTableRecord
100
AcDbTextStyleTableRecord
  2
TATEGAKI
 70
    68
 40
0.0
 41
1.0
 50
0.0
 71
     0
 42
1.0
  3
txt
  4
bigfont.shx
  0
ENDTAB
  0
TABLE
  2
LAYER
 70
    2
  0
LAYER
  2
_0-0_
 70
   64
 62
    7
  6
CONTINUOUS
  0
LAYER
  2
ADD_LINE
 70
   64
 62
    7
  6
CONTINUOUS
  0
ENDTAB
  0
ENDSEC
  0
SECTION
  2
BLOCKS
  0
ENDSEC
  0
SECTION
  2
ENTITIES
  0
LINE
  8
_0-0_
  6
CONTINUOUS
 62
    4
 10
390747.40297137952
 20
282628
 11
391422.40297137952
 21
282628
  0
LINE
  8
_0-0_
  6
CONTINUOUS
 62
    4
 10
390747.40297137952
 20
282628
 11
390747.40297137952
 21
283303
  0
LINE
  8
_0-0_
  6
CONTINUOUS
 62
    4
 10
391422.40297137952
 20
282628
 11
391422.40297137952
 21
283303
  0
LINE
  8
_0-0_
  6
CONTINUOUS
 62
    4
 10
390747.40297137952
 20
283303
 11
391422.40297137952
 21
283303
  0
LINE
  8
_0-0_
  6
CONTINUOUS
 62
    4
 10
391626.8035732641
 20
282628
 11
391676.8035732641
 21
282628
  0
LINE
  8
_0-0_
  6
CONTINUOUS
 62
    4
 10
391626.8035732641
 20
282628
 11
391626.8035732641
 21
283303
  0
LINE
  8
_0-0_
  6
CONTINUOUS
 62
    4
 10
391676.8035732641
 20
282628
 11
391676.8035732641
 21
283303
  0
LINE
  8
_0-0_
  6
CONTINUOUS
 62
    4
 10
391626.8035732641
 20
283303
 11
391676.8035732641
 21
283303
  0
LINE
  8
_0-0_
  6
CONTINUOUS
 62
    4
 10
390747.40297137952
 20
282578
 11
390747.40297137952
 21
282528
  0
LINE
  8
_0-0_
  6
CONTINUOUS
 62
    4
 10
391422.40297137952
 20
282578
 11
391422.40297137952
 21
282528
  0
LINE
  8
_0-0_
  6
CONTINUOUS
 62
    4
 10
390747.40297137952
 20
282528
 11
391422.40297137952
 21
282528
  0
LINE
  8
_0-0_
  6
CONTINUOUS
 62
    4
 10
390750.00126239512
 20
282528
 11
390750.00126239512
 21
282528
  0
LINE
  8
_0-0_
  6
CONTINUOUS
 62
    4
 10
390750.00126239512
 20
282528
 11
390749.96178851626
 21
282528.45118849992
  0
LINE
  8
_0-0_
  6
CONTINUOUS
 62
    4
 10
390749.96178851626
 20
282528.45118849992
 11
390749.84456627356
 21
282528.88866786554
  0
LINE
  8
_0-0_
  6
CONTINUOUS
 62
    4
 10
390749.84456627356
 20
282528.88866786554
 11
390749.6531574055
 21
282529.2991455078
  0
LINE
  8
_0-0_
  6
CONTINUOUS
 62
    4
 10
390749.6531574055
 20
282529.2991455078
 11
390749.39337777364
 21
282529.6701492712
  0
LINE
  8
_0-0_
  6
CONTINUOUS
 62
    4
 10
390749.39337777364
 20
282529.6701492712
 11
390749.07312065072
 21
282529.99040639412
  0
LINE
  8
_0-0_
  6
CONTINUOUS
 62
    4
 10
390749.07312065072
 20
282529.99040639412
 11
390748.70211688732
 21
282530.25018602598
  0
LINE
  8
_0-0_
  6
CONTINUOUS
 62
    4
 10
390748.70211688732
 20
282530.25018602598
 11
390748.29163924506
 21
282530.44159489404
  0
LINE
  8
_0-0_
  6
CONTINUOUS
 62
    4
 10
390748.29163924506
 20
282530.44159489404
 11
390747.85415987944
 21
282530.55881713674
  0
LINE
  8
_0-0_
  6
CONTINUOUS
 62
    4
 10
390747.85415987944
 20
282530.55881713674
 11
390747.40297137952
 21
282530.5982910156
  0
LINE
  8
_0-0_
  6
CONTINUOUS
 62
    4
 10
390747.40297137952
 20
282530.5982910156
 11
390746.95178287959
 21
282530.55881713674
  0
LINE
  8
_0-0_
  6
CONTINUOUS
 62
    4
 10
390746.95178287959
 20
282530.55881713674
 11
390746.51430351398
 21
282530.44159489404
  0
LINE
  8
_0-0_
  6
CONTINUOUS
 62
    4
 10
390746.51430351398
 20
282530.44159489404
 11
390746.10382587172
 21
282530.25018602598
  0
LINE
  8
_0-0_
  6
CONTINUOUS
 62
    4
 10
390746.10382587172
 20
282530.25018602598
 11
390745.73282210832
 21
282529.99040639412
  0
LINE
  8
_0-0_
  6
CONTINUOUS
 62
    4
 10
390745.73282210832
 20
282529.99040639412
 11
390745.4125649854
 21
282529.6701492712
  0
LINE
  8
_0-0_
  6
CONTINUOUS
 62
    4
 10
390745.4125649854
 20
282529.6701492712
 11
390745.15278535354
 21
282529.2991455078
  0
LINE
  8
_0-0_
  6
CONTINUOUS
 62
    4
 10
390745.15278535354
 20
282529.2991455078
 11
390744.96137648547
 21
282528.88866786554
  0
LINE
  8
_0-0_
  6
CONTINUOUS
 62
    4
 10
390744.96137648547
 20
282528.88866786554
 11
390744.84415424278
 21
282528.45118849992
  0
LINE
  8
_0-0_
  6
CONTINUOUS
 62
    4
 10
390744.84415424278
 20
282528.45118849992
 11
390744.80468036392
 21
282528
  0
LINE
  8
_0-0_
  6
CONTINUOUS
 62
    4
 10
390744.80468036392
 20
282528
 11
390744.84415424278
 21
282527.54881150008
  0
LINE
  8
_0-0_
  6
CONTINUOUS
 62
    4
 10
390744.84415424278
 20
282527.54881150008
 11
390744.96137648547
 21
282527.11133213446
  0
LINE
  8
_0-0_
  6
CONTINUOUS
 62
    4
 10
390744.96137648547
 20
282527.11133213446
 11
390745.15278535354
 21
282526.7008544922
  0
LINE
  8
_0-0_
  6
CONTINUOUS
 62
    4
 10
390745.15278535354
 20
282526.7008544922
 11
390745.4125649854
 21
282526.3298507288
  0
LINE
  8
_0-0_
  6
CONTINUOUS
 62
    4
 10
390745.4125649854
 20
282526.3298507288
 11
390745.73282210832
 21
282526.00959360588
  0
LINE
  8
_0-0_
  6
CONTINUOUS
 62
    4
 10
390745.73282210832
 20
282526.00959360588
 11
390746.10382587172
 21
282525.74981397402
  0
LINE
  8
_0-0_
  6
CONTINUOUS
 62
    4
 10
390746.10382587172
 20
282525.74981397402
 11
390746.51430351398
 21
282525.55840510596
  0
LINE
  8
_0-0_
  6
CONTINUOUS
 62
    4
 10
390746.51430351398
 20
282525.55840510596
 11
390746.95178287959
 21
282525.44118286326
  0
LINE
  8
_0-0_
  6
CONTINUOUS
 62
    4
 10
390746.95178287959
 20
282525.44118286326
 11
390747.40297137952
 21
282525.4017089844
  0
LINE
  8
_0-0_
  6
CONTINUOUS
 62
    4
 10
390747.40297137952
 20
282525.4017089844
 11
390747.85415987944
 21
282525.44118286326
  0
LINE
  8
_0-0_
  6
CONTINUOUS
 62
    4
 10
390747.85415987944
 20
282525.44118286326
 11
390748.29163924506
 21
282525.55840510596
  0
LINE
  8
_0-0_
  6
CONTINUOUS
 62
    4
 10
390748.29163924506
 20
282525.55840510596
 11
390748.70211688732
 21
282525.74981397402
  0
LINE
  8
_0-0_
  6
CONTINUOUS
 62
    4
 10
390748.70211688732
 20
282525.74981397402
 11
390749.07312065072
 21
282526.00959360588
  0
LINE
  8
_0-0_
  6
CONTINUOUS
 62
    4
 10
390749.07312065072
 20
282526.00959360588
 11
390749.39337777364
 21
282526.3298507288
  0
LINE
  8
_0-0_
  6
CONTINUOUS
 62
    4
 10
390749.39337777364
 20
282526.3298507288
 11
390749.6531574055
 21
282526.7008544922
  0
LINE
  8
_0-0_
  6
CONTINUOUS
 62
    4
 10
390749.6531574055
 20
282526.7008544922
 11
390749.84456627356
 21
282527.11133213446
  0
LINE
  8
_0-0_
  6
CONTINUOUS
 62
    4
 10
390749.84456627356
 20
282527.11133213446
 11
390749.96178851626
 21
282527.54881150008
  0
LINE
  8
_0-0_
  6
CONTINUOUS
 62
    4
 10
390749.96178851626
 20
282527.54881150008
 11
390750.00126239512
 21
282528
  0
LINE
  8
_0-0_
  6
CONTINUOUS
 62
    4
 10
390750.00126239512
 20
282528
 11
390750.00126239512
 21
282528
  0
LINE
  8
_0-0_
  6
CONTINUOUS
 62
    4
 10
391425.00126239512
 20
282528
 11
391425.00126239512
 21
282528
  0
LINE
  8
_0-0_
  6
CONTINUOUS
 62
    4
 10
391425.00126239512
 20
282528
 11
391424.96178851626
 21
282528.45118849992
  0
LINE
  8
_0-0_
  6
CONTINUOUS
 62
    4
 10
391424.96178851626
 20
282528.45118849992
 11
391424.84456627356
 21
282528.88866786554
  0
LINE
  8
_0-0_
  6
CONTINUOUS
 62
    4
 10
391424.84456627356
 20
282528.88866786554
 11
391424.6531574055
 21
282529.2991455078
  0
LINE
  8
_0-0_
  6
CONTINUOUS
 62
    4
 10
391424.6531574055
 20
282529.2991455078
 11
391424.39337777364
 21
282529.6701492712
  0
LINE
  8
_0-0_
  6
CONTINUOUS
 62
    4
 10
391424.39337777364
 20
282529.6701492712
 11
391424.07312065072
 21
282529.99040639412
  0
LINE
  8
_0-0_
  6
CONTINUOUS
 62
    4
 10
391424.07312065072
 20
282529.99040639412
 11
391423.70211688732
 21
282530.25018602598
  0
LINE
  8
_0-0_
  6
CONTINUOUS
 62
    4
 10
391423.70211688732
 20
282530.25018602598
 11
391423.29163924506
 21
282530.44159489404
  0
LINE
  8
_0-0_
  6
CONTINUOUS
 62
    4
 10
391423.29163924506
 20
282530.44159489404
 11
391422.85415987944
 21
282530.55881713674
  0
LINE
  8
_0-0_
  6
CONTINUOUS
 62
    4
 10
391422.85415987944
 20
282530.55881713674
 11
391422.40297137952
 21
282530.5982910156
  0
LINE
  8
_0-0_
  6
CONTINUOUS
 62
    4
 10
391422.40297137952
 20
282530.5982910156
 11
391421.95178287959
 21
282530.55881713674
  0
LINE
  8
_0-0_
  6
CONTINUOUS
 62
    4
 10
391421.95178287959
 20
282530.55881713674
 11
391421.51430351398
 21
282530.44159489404
  0
LINE
  8
_0-0_
  6
CONTINUOUS
 62
    4
 10
391421.51430351398
 20
282530.44159489404
 11
391421.10382587172
 21
282530.25018602598
  0
LINE
  8
_0-0_
  6
CONTINUOUS
 62
    4
 10
391421.10382587172
 20
282530.25018602598
 11
391420.73282210832
 21
282529.99040639412
  0
LINE
  8
_0-0_
  6
CONTINUOUS
 62
    4
 10
391420.73282210832
 20
282529.99040639412
 11
391420.4125649854
 21
282529.6701492712
  0
LINE
  8
_0-0_
  6
CONTINUOUS
 62
    4
 10
391420.4125649854
 20
282529.6701492712
 11
391420.15278535354
 21
282529.2991455078
  0
LINE
  8
_0-0_
  6
CONTINUOUS
 62
    4
 10
391420.15278535354
 20
282529.2991455078
 11
391419.96137648547
 21
282528.88866786554
  0
LINE
  8
_0-0_
  6
CONTINUOUS
 62
    4
 10
391419.96137648547
 20
282528.88866786554
 11
391419.84415424278
 21
282528.45118849992
  0
LINE
  8
_0-0_
  6
CONTINUOUS
 62
    4
 10
391419.84415424278
 20
282528.45118849992
 11
391419.80468036392
 21
282528
  0
LINE
  8
_0-0_
  6
CONTINUOUS
 62
    4
 10
391419.80468036392
 20
282528
 11
391419.84415424278
 21
282527.54881150008
  0
LINE
  8
_0-0_
  6
CONTINUOUS
 62
    4
 10
391419.84415424278
 20
282527.54881150008
 11
391419.96137648547
 21
282527.11133213446
  0
LINE
  8
_0-0_
  6
CONTINUOUS
 62
    4
 10
391419.96137648547
 20
282527.11133213446
 11
391420.15278535354
 21
282526.7008544922
  0
LINE
  8
_0-0_
  6
CONTINUOUS
 62
    4
 10
391420.15278535354
 20
282526.7008544922
 11
391420.4125649854
 21
282526.3298507288
  0
LINE
  8
_0-0_
  6
CONTINUOUS
 62
    4
 10
391420.4125649854
 20
282526.3298507288
 11
391420.73282210832
 21
282526.00959360588
  0
LINE
  8
_0-0_
  6
CONTINUOUS
 62
    4
 10
391420.73282210832
 20
282526.00959360588
 11
391421.10382587172
 21
282525.74981397402
  0
LINE
  8
_0-0_
  6
CONTINUOUS
 62
    4
 10
391421.10382587172
 20
282525.74981397402
 11
391421.51430351398
 21
282525.55840510596
  0
LINE
  8
_0-0_
  6
CONTINUOUS
 62
    4
 10
391421.51430351398
 20
282525.55840510596
 11
391421.95178287959
 21
282525.44118286326
  0
LINE
  8
_0-0_
  6
CONTINUOUS
 62
    4
 10
391421.95178287959
 20
282525.44118286326
 11
391422.40297137952
 21
282525.4017089844
  0
LINE
  8
_0-0_
  6
CONTINUOUS
 62
    4
 10
391422.40297137952
 20
282525.4017089844
 11
391422.85415987944
 21
282525.44118286326
  0
LINE
  8
_0-0_
  6
CONTINUOUS
 62
    4
 10
391422.85415987944
 20
282525.44118286326
 11
391423.29163924506
 21
282525.55840510596
  0
LINE
  8
_0-0_
  6
CONTINUOUS
 62
    4
 10
391423.29163924506
 20
282525.55840510596
 11
391423.70211688732
 21
282525.74981397402
  0
LINE
  8
_0-0_
  6
CONTINUOUS
 62
    4
 10
391423.70211688732
 20
282525.74981397402
 11
391424.07312065072
 21
282526.00959360588
  0
LINE
  8
_0-0_
  6
CONTINUOUS
 62
    4
 10
391424.07312065072
 20
282526.00959360588
 11
391424.39337777364
 21
282526.3298507288
  0
LINE
  8
_0-0_
  6
CONTINUOUS
 62
    4
 10
391424.39337777364
 20
282526.3298507288
 11
391424.6531574055
 21
282526.7008544922
  0
LINE
  8
_0-0_
  6
CONTINUOUS
 62
    4
 10
391424.6531574055
 20
282526.7008544922
 11
391424.84456627356
 21
282527.11133213446
  0
LINE
  8
_0-0_
  6
CONTINUOUS
 62
    4
 10
391424.84456627356
 20
282527.11133213446
 11
391424.96178851626
 21
282527.54881150008
  0
LINE
  8
_0-0_
  6
CONTINUOUS
 62
    4
 10
391424.96178851626
 20
282527.54881150008
 11
391425.00126239512
 21
282528
  0
LINE
  8
_0-0_
  6
CONTINUOUS
 62
    4
 10
391425.00126239512
 20
282528
 11
391425.00126239512
 21
282528
  0
TEXT
  8
_0-0_
 62
    7
 10
391058.61000262952
 20
282529
 40
35.842222222222226
 41
0.9781003937007872
 50
0
  1
675
  0
LINE
  8
_0-0_
  6
CONTINUOUS
 62
    4
 10
391472.40297137952
 20
283303
 11
391522.40297137952
 21
283303
  0
LINE
  8
_0-0_
  6
CONTINUOUS
 62
    4
 10
391472.40297137952
 20
282628
 11
391522.40297137952
 21
282628
  0
LINE
  8
_0-0_
  6
CONTINUOUS
 62
    4
 10
391522.40297137952
 20
283303
 11
391522.40297137952
 21
282628
  0
LINE
  8
_0-0_
  6
CONTINUOUS
 62
    4
 10
391525.00126239512
 20
283303
 11
391525.00126239512
 21
283303
  0
LINE
  8
_0-0_
  6
CONTINUOUS
 62
    4
 10
391525.00126239512
 20
283303
 11
391524.96178851626
 21
283303.45118849992
  0
LINE
  8
_0-0_
  6
CONTINUOUS
 62
    4
 10
391524.96178851626
 20
283303.45118849992
 11
391524.84456627356
 21
283303.88866786554
  0
LINE
  8
_0-0_
  6
CONTINUOUS
 62
    4
 10
391524.84456627356
 20
283303.88866786554
 11
391524.6531574055
 21
283304.2991455078
  0
LINE
  8
_0-0_
  6
CONTINUOUS
 62
    4
 10
391524.6531574055
 20
283304.2991455078
 11
391524.39337777364
 21
283304.6701492712
  0
LINE
  8
_0-0_
  6
CONTINUOUS
 62
    4
 10
391524.39337777364
 20
283304.6701492712
 11
391524.07312065072
 21
283304.99040639412
  0
LINE
  8
_0-0_
  6
CONTINUOUS
 62
    4
 10
391524.07312065072
 20
283304.99040639412
 11
391523.70211688732
 21
283305.25018602598
  0
LINE
  8
_0-0_
  6
CONTINUOUS
 62
    4
 10
391523.70211688732
 20
283305.25018602598
 11
391523.29163924506
 21
283305.44159489404
  0
LINE
  8
_0-0_
  6
CONTINUOUS
 62
    4
 10
391523.29163924506
 20
283305.44159489404
 11
391522.85415987944
 21
283305.55881713674
  0
LINE
  8
_0-0_
  6
CONTINUOUS
 62
    4
 10
391522.85415987944
 20
283305.55881713674
 11
391522.40297137952
 21
283305.5982910156
  0
LINE
  8
_0-0_
  6
CONTINUOUS
 62
    4
 10
391522.40297137952
 20
283305.5982910156
 11
391521.95178287959
 21
283305.55881713674
  0
LINE
  8
_0-0_
  6
CONTINUOUS
 62
    4
 10
391521.95178287959
 20
283305.55881713674
 11
391521.51430351398
 21
283305.44159489404
  0
LINE
  8
_0-0_
  6
CONTINUOUS
 62
    4
 10
391521.51430351398
 20
283305.44159489404
 11
391521.10382587172
 21
283305.25018602598
  0
LINE
  8
_0-0_
  6
CONTINUOUS
 62
    4
 10
391521.10382587172
 20
283305.25018602598
 11
391520.73282210832
 21
283304.99040639412
  0
LINE
  8
_0-0_
  6
CONTINUOUS
 62
    4
 10
391520.73282210832
 20
283304.99040639412
 11
391520.4125649854
 21
283304.6701492712
  0
LINE
  8
_0-0_
  6
CONTINUOUS
 62
    4
 10
391520.4125649854
 20
283304.6701492712
 11
391520.15278535354
 21
283304.2991455078
  0
LINE
  8
_0-0_
  6
CONTINUOUS
 62
    4
 10
391520.15278535354
 20
283304.2991455078
 11
391519.96137648547
 21
283303.88866786554
  0
LINE
  8
_0-0_
  6
CONTINUOUS
 62
    4
 10
391519.96137648547
 20
283303.88866786554
 11
391519.84415424278
 21
283303.45118849992
  0
LINE
  8
_0-0_
  6
CONTINUOUS
 62
    4
 10
391519.84415424278
 20
283303.45118849992
 11
391519.80468036392
 21
283303
  0
LINE
  8
_0-0_
  6
CONTINUOUS
 62
    4
 10
391519.80468036392
 20
283303
 11
391519.84415424278
 21
283302.54881150008
  0
LINE
  8
_0-0_
  6
CONTINUOUS
 62
    4
 10
391519.84415424278
 20
283302.54881150008
 11
391519.96137648547
 21
283302.11133213446
  0
LINE
  8
_0-0_
  6
CONTINUOUS
 62
    4
 10
391519.96137648547
 20
283302.11133213446
 11
391520.15278535354
 21
283301.7008544922
  0
LINE
  8
_0-0_
  6
CONTINUOUS
 62
    4
 10
391520.15278535354
 20
283301.7008544922
 11
391520.4125649854
 21
283301.3298507288
  0
LINE
  8
_0-0_
  6
CONTINUOUS
 62
    4
 10
391520.4125649854
 20
283301.3298507288
 11
391520.73282210832
 21
283301.00959360588
  0
LINE
  8
_0-0_
  6
CONTINUOUS
 62
    4
 10
391520.73282210832
 20
283301.00959360588
 11
391521.10382587172
 21
283300.74981397402
  0
LINE
  8
_0-0_
  6
CONTINUOUS
 62
    4
 10
391521.10382587172
 20
283300.74981397402
 11
391521.51430351398
 21
283300.55840510596
  0
LINE
  8
_0-0_
  6
CONTINUOUS
 62
    4
 10
391521.51430351398
 20
283300.55840510596
 11
391521.95178287959
 21
283300.44118286326
  0
LINE
  8
_0-0_
  6
CONTINUOUS
 62
    4
 10
391521.95178287959
 20
283300.44118286326
 11
391522.40297137952
 21
283300.4017089844
  0
LINE
  8
_0-0_
  6
CONTINUOUS
 62
    4
 10
391522.40297137952
 20
283300.4017089844
 11
391522.85415987944
 21
283300.44118286326
  0
LINE
  8
_0-0_
  6
CONTINUOUS
 62
    4
 10
391522.85415987944
 20
283300.44118286326
 11
391523.29163924506
 21
283300.55840510596
  0
LINE
  8
_0-0_
  6
CONTINUOUS
 62
    4
 10
391523.29163924506
 20
283300.55840510596
 11
391523.70211688732
 21
283300.74981397402
  0
LINE
  8
_0-0_
  6
CONTINUOUS
 62
    4
 10
391523.70211688732
 20
283300.74981397402
 11
391524.07312065072
 21
283301.00959360588
  0
LINE
  8
_0-0_
  6
CONTINUOUS
 62
    4
 10
391524.07312065072
 20
283301.00959360588
 11
391524.39337777364
 21
283301.3298507288
  0
LINE
  8
_0-0_
  6
CONTINUOUS
 62
    4
 10
391524.39337777364
 20
283301.3298507288
 11
391524.6531574055
 21
283301.7008544922
  0
LINE
  8
_0-0_
  6
CONTINUOUS
 62
    4
 10
391524.6531574055
 20
283301.7008544922
 11
391524.84456627356
 21
283302.11133213446
  0
LINE
  8
_0-0_
  6
CONTINUOUS
 62
    4
 10
391524.84456627356
 20
283302.11133213446
 11
391524.96178851626
 21
283302.54881150008
  0
LINE
  8
_0-0_
  6
CONTINUOUS
 62
    4
 10
391524.96178851626
 20
283302.54881150008
 11
391525.00126239512
 21
283303
  0
LINE
  8
_0-0_
  6
CONTINUOUS
 62
    4
 10
391525.00126239512
 20
283303
 11
391525.00126239512
 21
283303
  0
LINE
  8
_0-0_
  6
CONTINUOUS
 62
    4
 10
391525.00126239512
 20
282628
 11
391525.00126239512
 21
282628
  0
LINE
  8
_0-0_
  6
CONTINUOUS
 62
    4
 10
391525.00126239512
 20
282628
 11
391524.96178851626
 21
282628.45118849992
  0
LINE
  8
_0-0_
  6
CONTINUOUS
 62
    4
 10
391524.96178851626
 20
282628.45118849992
 11
391524.84456627356
 21
282628.88866786554
  0
LINE
  8
_0-0_
  6
CONTINUOUS
 62
    4
 10
391524.84456627356
 20
282628.88866786554
 11
391524.6531574055
 21
282629.2991455078
  0
LINE
  8
_0-0_
  6
CONTINUOUS
 62
    4
 10
391524.6531574055
 20
282629.2991455078
 11
391524.39337777364
 21
282629.6701492712
  0
LINE
  8
_0-0_
  6
CONTINUOUS
 62
    4
 10
391524.39337777364
 20
282629.6701492712
 11
391524.07312065072
 21
282629.99040639412
  0
LINE
  8
_0-0_
  6
CONTINUOUS
 62
    4
 10
391524.07312065072
 20
282629.99040639412
 11
391523.70211688732
 21
282630.25018602598
  0
LINE
  8
_0-0_
  6
CONTINUOUS
 62
    4
 10
391523.70211688732
 20
282630.25018602598
 11
391523.29163924506
 21
282630.44159489404
  0
LINE
  8
_0-0_
  6
CONTINUOUS
 62
    4
 10
391523.29163924506
 20
282630.44159489404
 11
391522.85415987944
 21
282630.55881713674
  0
LINE
  8
_0-0_
  6
CONTINUOUS
 62
    4
 10
391522.85415987944
 20
282630.55881713674
 11
391522.40297137952
 21
282630.5982910156
  0
LINE
  8
_0-0_
  6
CONTINUOUS
 62
    4
 10
391522.40297137952
 20
282630.5982910156
 11
391521.95178287959
 21
282630.55881713674
  0
LINE
  8
_0-0_
  6
CONTINUOUS
 62
    4
 10
391521.95178287959
 20
282630.55881713674
 11
391521.51430351398
 21
282630.44159489404
  0
LINE
  8
_0-0_
  6
CONTINUOUS
 62
    4
 10
391521.51430351398
 20
282630.44159489404
 11
391521.10382587172
 21
282630.25018602598
  0
LINE
  8
_0-0_
  6
CONTINUOUS
 62
    4
 10
391521.10382587172
 20
282630.25018602598
 11
391520.73282210832
 21
282629.99040639412
  0
LINE
  8
_0-0_
  6
CONTINUOUS
 62
    4
 10
391520.73282210832
 20
282629.99040639412
 11
391520.4125649854
 21
282629.6701492712
  0
LINE
  8
_0-0_
  6
CONTINUOUS
 62
    4
 10
391520.4125649854
 20
282629.6701492712
 11
391520.15278535354
 21
282629.2991455078
  0
LINE
  8
_0-0_
  6
CONTINUOUS
 62
    4
 10
391520.15278535354
 20
282629.2991455078
 11
391519.96137648547
 21
282628.88866786554
  0
LINE
  8
_0-0_
  6
CONTINUOUS
 62
    4
 10
391519.96137648547
 20
282628.88866786554
 11
391519.84415424278
 21
282628.45118849992
  0
LINE
  8
_0-0_
  6
CONTINUOUS
 62
    4
 10
391519.84415424278
 20
282628.45118849992
 11
391519.80468036392
 21
282628
  0
LINE
  8
_0-0_
  6
CONTINUOUS
 62
    4
 10
391519.80468036392
 20
282628
 11
391519.84415424278
 21
282627.54881150008
  0
LINE
  8
_0-0_
  6
CONTINUOUS
 62
    4
 10
391519.84415424278
 20
282627.54881150008
 11
391519.96137648547
 21
282627.11133213446
  0
LINE
  8
_0-0_
  6
CONTINUOUS
 62
    4
 10
391519.96137648547
 20
282627.11133213446
 11
391520.15278535354
 21
282626.7008544922
  0
LINE
  8
_0-0_
  6
CONTINUOUS
 62
    4
 10
391520.15278535354
 20
282626.7008544922
 11
391520.4125649854
 21
282626.3298507288
  0
LINE
  8
_0-0_
  6
CONTINUOUS
 62
    4
 10
391520.4125649854
 20
282626.3298507288
 11
391520.73282210832
 21
282626.00959360588
  0
LINE
  8
_0-0_
  6
CONTINUOUS
 62
    4
 10
391520.73282210832
 20
282626.00959360588
 11
391521.10382587172
 21
282625.74981397402
  0
LINE
  8
_0-0_
  6
CONTINUOUS
 62
    4
 10
391521.10382587172
 20
282625.74981397402
 11
391521.51430351398
 21
282625.55840510596
  0
LINE
  8
_0-0_
  6
CONTINUOUS
 62
    4
 10
391521.51430351398
 20
282625.55840510596
 11
391521.95178287959
 21
282625.44118286326
  0
LINE
  8
_0-0_
  6
CONTINUOUS
 62
    4
 10
391521.95178287959
 20
282625.44118286326
 11
391522.40297137952
 21
282625.4017089844
  0
LINE
  8
_0-0_
  6
CONTINUOUS
 62
    4
 10
391522.40297137952
 20
282625.4017089844
 11
391522.85415987944
 21
282625.44118286326
  0
LINE
  8
_0-0_
  6
CONTINUOUS
 62
    4
 10
391522.85415987944
 20
282625.44118286326
 11
391523.29163924506
 21
282625.55840510596
  0
LINE
  8
_0-0_
  6
CONTINUOUS
 62
    4
 10
391523.29163924506
 20
282625.55840510596
 11
391523.70211688732
 21
282625.74981397402
  0
LINE
  8
_0-0_
  6
CONTINUOUS
 62
    4
 10
391523.70211688732
 20
282625.74981397402
 11
391524.07312065072
 21
282626.00959360588
  0
LINE
  8
_0-0_
  6
CONTINUOUS
 62
    4
 10
391524.07312065072
 20
282626.00959360588
 11
391524.39337777364
 21
282626.3298507288
  0
LINE
  8
_0-0_
  6
CONTINUOUS
 62
    4
 10
391524.39337777364
 20
282626.3298507288
 11
391524.6531574055
 21
282626.7008544922
  0
LINE
  8
_0-0_
  6
CONTINUOUS
 62
    4
 10
391524.6531574055
 20
282626.7008544922
 11
391524.84456627356
 21
282627.11133213446
  0
LINE
  8
_0-0_
  6
CONTINUOUS
 62
    4
 10
391524.84456627356
 20
282627.11133213446
 11
391524.96178851626
 21
282627.54881150008
  0
LINE
  8
_0-0_
  6
CONTINUOUS
 62
    4
 10
391524.96178851626
 20
282627.54881150008
 11
391525.00126239512
 21
282628
  0
LINE
  8
_0-0_
  6
CONTINUOUS
 62
    4
 10
391525.00126239512
 20
282628
 11
391525.00126239512
 21
282628
  0
TEXT
  8
_0-0_
 62
    7
 10
391521.40297137952
 20
282939.20703125
 40
35.842222222222226
 41
0.9781003937007872
 50
90
  1
675
  0
LINE
  8
_0-0_
  6
CONTINUOUS
 62
    4
 10
391676.8035732641
 20
282578
 11
391676.8035732641
 21
282528
  0
LINE
  8
_0-0_
  6
CONTINUOUS
 62
    4
 10
391626.8035732641
 20
282578
 11
391626.8035732641
 21
282528
  0
LINE
  8
_0-0_
  6
CONTINUOUS
 62
    4
 10
391676.8035732641
 20
282528
 11
391626.8035732641
 21
282528
  0
LINE
  8
_0-0_
  6
CONTINUOUS
 62
    4
 10
391679.4018642797
 20
282528
 11
391679.4018642797
 21
282528
  0
LINE
  8
_0-0_
  6
CONTINUOUS
 62
    4
 10
391679.4018642797
 20
282528
 11
391679.36239040084
 21
282528.45118849992
  0
LINE
  8
_0-0_
  6
CONTINUOUS
 62
    4
 10
391679.36239040084
 20
282528.45118849992
 11
391679.24516815814
 21
282528.88866786554
  0
LINE
  8
_0-0_
  6
CONTINUOUS
 62
    4
 10
391679.24516815814
 20
282528.88866786554
 11
391679.05375929008
 21
282529.2991455078
  0
LINE
  8
_0-0_
  6
CONTINUOUS
 62
    4
 10
391679.05375929008
 20
282529.2991455078
 11
391678.79397965822
 21
282529.6701492712
  0
LINE
  8
_0-0_
  6
CONTINUOUS
 62
    4
 10
391678.79397965822
 20
282529.6701492712
 11
391678.4737225353
 21
282529.99040639412
  0
LINE
  8
_0-0_
  6
CONTINUOUS
 62
    4
 10
391678.4737225353
 20
282529.99040639412
 11
391678.1027187719
 21
282530.25018602598
  0
LINE
  8
_0-0_
  6
CONTINUOUS
 62
    4
 10
391678.1027187719
 20
282530.25018602598
 11
391677.69224112964
 21
282530.44159489404
  0
LINE
  8
_0-0_
  6
CONTINUOUS
 62
    4
 10
391677.69224112964
 20
282530.44159489404
 11
391677.25476176402
 21
282530.55881713674
  0
LINE
  8
_0-0_
  6
CONTINUOUS
 62
    4
 10
391677.25476176402
 20
282530.55881713674
 11
391676.8035732641
 21
282530.5982910156
  0
LINE
  8
_0-0_
  6
CONTINUOUS
 62
    4
 10
391676.8035732641
 20
282530.5982910156
 11
391676.35238476418
 21
282530.55881713674
  0
LINE
  8
_0-0_
  6
CONTINUOUS
 62
    4
 10
391676.35238476418
 20
282530.55881713674
 11
391675.91490539856
 21
282530.44159489404
  0
LINE
  8
_0-0_
  6
CONTINUOUS
 62
    4
 10
391675.91490539856
 20
282530.44159489404
 11
391675.5044277563
 21
282530.25018602598
  0
LINE
  8
_0-0_
  6
CONTINUOUS
 62
    4
 10
391675.5044277563
 20
282530.25018602598
 11
391675.1334239929
 21
282529.99040639412
  0
LINE
  8
_0-0_
  6
CONTINUOUS
 62
    4
 10
391675.1334239929
 20
282529.99040639412
 11
391674.81316686998
 21
282529.6701492712
  0
LINE
  8
_0-0_
  6
CONTINUOUS
 62
    4
 10
391674.81316686998
 20
282529.6701492712
 11
391674.55338723812
 21
282529.2991455078
  0
LINE
  8
_0-0_
  6
CONTINUOUS
 62
    4
 10
391674.55338723812
 20
282529.2991455078
 11
391674.36197837006
 21
282528.88866786554
  0
LINE
  8
_0-0_
  6
CONTINUOUS
 62
    4
 10
391674.36197837006
 20
282528.88866786554
 11
391674.24475612736
 21
282528.45118849992
  0
LINE
  8
_0-0_
  6
CONTINUOUS
 62
    4
 10
391674.24475612736
 20
282528.45118849992
 11
391674.2052822485
 21
282528
  0
LINE
  8
_0-0_
  6
CONTINUOUS
 62
    4
 10
391674.2052822485
 20
282528
 11
391674.24475612736
 21
282527.54881150008
  0
LINE
  8
_0-0_
  6
CONTINUOUS
 62
    4
 10
391674.24475612736
 20
282527.54881150008
 11
391674.36197837006
 21
282527.11133213446
  0
LINE
  8
_0-0_
  6
CONTINUOUS
 62
    4
 10
391674.36197837006
 20
282527.11133213446
 11
391674.55338723812
 21
282526.7008544922
  0
LINE
  8
_0-0_
  6
CONTINUOUS
 62
    4
 10
391674.55338723812
 20
282526.7008544922
 11
391674.81316686998
 21
282526.3298507288
  0
LINE
  8
_0-0_
  6
CONTINUOUS
 62
    4
 10
391674.81316686998
 20
282526.3298507288
 11
391675.1334239929
 21
282526.00959360588
  0
LINE
  8
_0-0_
  6
CONTINUOUS
 62
    4
 10
391675.1334239929
 20
282526.00959360588
 11
391675.5044277563
 21
282525.74981397402
  0
LINE
  8
_0-0_
  6
CONTINUOUS
 62
    4
 10
391675.5044277563
 20
282525.74981397402
 11
391675.91490539856
 21
282525.55840510596
  0
LINE
  8
_0-0_
  6
CONTINUOUS
 62
    4
 10
391675.91490539856
 20
282525.55840510596
 11
391676.35238476418
 21
282525.44118286326
  0
LINE
  8
_0-0_
  6
CONTINUOUS
 62
    4
 10
391676.35238476418
 20
282525.44118286326
 11
391676.8035732641
 21
282525.4017089844
  0
LINE
  8
_0-0_
  6
CONTINUOUS
 62
    4
 10
391676.8035732641
 20
282525.4017089844
 11
391677.25476176402
 21
282525.44118286326
  0
LINE
  8
_0-0_
  6
CONTINUOUS
 62
    4
 10
391677.25476176402
 20
282525.44118286326
 11
391677.69224112964
 21
282525.55840510596
  0
LINE
  8
_0-0_
  6
CONTINUOUS
 62
    4
 10
391677.69224112964
 20
282525.55840510596
 11
391678.1027187719
 21
282525.74981397402
  0
LINE
  8
_0-0_
  6
CONTINUOUS
 62
    4
 10
391678.1027187719
 20
282525.74981397402
 11
391678.4737225353
 21
282526.00959360588
  0
LINE
  8
_0-0_
  6
CONTINUOUS
 62
    4
 10
391678.4737225353
 20
282526.00959360588
 11
391678.79397965822
 21
282526.3298507288
  0
LINE
  8
_0-0_
  6
CONTINUOUS
 62
    4
 10
391678.79397965822
 20
282526.3298507288
 11
391679.05375929008
 21
282526.7008544922
  0
LINE
  8
_0-0_
  6
CONTINUOUS
 62
    4
 10
391679.05375929008
 20
282526.7008544922
 11
391679.24516815814
 21
282527.11133213446
  0
LINE
  8
_0-0_
  6
CONTINUOUS
 62
    4
 10
391679.24516815814
 20
282527.11133213446
 11
391679.36239040084
 21
282527.54881150008
  0
LINE
  8
_0-0_
  6
CONTINUOUS
 62
    4
 10
391679.36239040084
 20
282527.54881150008
 11
391679.4018642797
 21
282528
  0
LINE
  8
_0-0_
  6
CONTINUOUS
 62
    4
 10
391679.4018642797
 20
282528
 11
391679.4018642797
 21
282528
  0
LINE
  8
_0-0_
  6
CONTINUOUS
 62
    4
 10
391629.4018642797
 20
282528
 11
391629.4018642797
 21
282528
  0
LINE
  8
_0-0_
  6
CONTINUOUS
 62
    4
 10
391629.4018642797
 20
282528
 11
391629.36239040084
 21
282528.45118849992
  0
LINE
  8
_0-0_
  6
CONTINUOUS
 62
    4
 10
391629.36239040084
 20
282528.45118849992
 11
391629.24516815814
 21
282528.88866786554
  0
LINE
  8
_0-0_
  6
CONTINUOUS
 62
    4
 10
391629.24516815814
 20
282528.88866786554
 11
391629.05375929008
 21
282529.2991455078
  0
LINE
  8
_0-0_
  6
CONTINUOUS
 62
    4
 10
391629.05375929008
 20
282529.2991455078
 11
391628.79397965822
 21
282529.6701492712
  0
LINE
  8
_0-0_
  6
CONTINUOUS
 62
    4
 10
391628.79397965822
 20
282529.6701492712
 11
391628.4737225353
 21
282529.99040639412
  0
LINE
  8
_0-0_
  6
CONTINUOUS
 62
    4
 10
391628.4737225353
 20
282529.99040639412
 11
391628.1027187719
 21
282530.25018602598
  0
LINE
  8
_0-0_
  6
CONTINUOUS
 62
    4
 10
391628.1027187719
 20
282530.25018602598
 11
391627.69224112964
 21
282530.44159489404
  0
LINE
  8
_0-0_
  6
CONTINUOUS
 62
    4
 10
391627.69224112964
 20
282530.44159489404
 11
391627.25476176402
 21
282530.55881713674
  0
LINE
  8
_0-0_
  6
CONTINUOUS
 62
    4
 10
391627.25476176402
 20
282530.55881713674
 11
391626.8035732641
 21
282530.5982910156
  0
LINE
  8
_0-0_
  6
CONTINUOUS
 62
    4
 10
391626.8035732641
 20
282530.5982910156
 11
391626.35238476418
 21
282530.55881713674
  0
LINE
  8
_0-0_
  6
CONTINUOUS
 62
    4
 10
391626.35238476418
 20
282530.55881713674
 11
391625.91490539856
 21
282530.44159489404
  0
LINE
  8
_0-0_
  6
CONTINUOUS
 62
    4
 10
391625.91490539856
 20
282530.44159489404
 11
391625.5044277563
 21
282530.25018602598
  0
LINE
  8
_0-0_
  6
CONTINUOUS
 62
    4
 10
391625.5044277563
 20
282530.25018602598
 11
391625.1334239929
 21
282529.99040639412
  0
LINE
  8
_0-0_
  6
CONTINUOUS
 62
    4
 10
391625.1334239929
 20
282529.99040639412
 11
391624.81316686998
 21
282529.6701492712
  0
LINE
  8
_0-0_
  6
CONTINUOUS
 62
    4
 10
391624.81316686998
 20
282529.6701492712
 11
391624.55338723812
 21
282529.2991455078
  0
LINE
  8
_0-0_
  6
CONTINUOUS
 62
    4
 10
391624.55338723812
 20
282529.2991455078
 11
391624.36197837006
 21
282528.88866786554
  0
LINE
  8
_0-0_
  6
CONTINUOUS
 62
    4
 10
391624.36197837006
 20
282528.88866786554
 11
391624.24475612736
 21
282528.45118849992
  0
LINE
  8
_0-0_
  6
CONTINUOUS
 62
    4
 10
391624.24475612736
 20
282528.45118849992
 11
391624.2052822485
 21
282528
  0
LINE
  8
_0-0_
  6
CONTINUOUS
 62
    4
 10
391624.2052822485
 20
282528
 11
391624.24475612736
 21
282527.54881150008
  0
LINE
  8
_0-0_
  6
CONTINUOUS
 62
    4
 10
391624.24475612736
 20
282527.54881150008
 11
391624.36197837006
 21
282527.11133213446
  0
LINE
  8
_0-0_
  6
CONTINUOUS
 62
    4
 10
391624.36197837006
 20
282527.11133213446
 11
391624.55338723812
 21
282526.7008544922
  0
LINE
  8
_0-0_
  6
CONTINUOUS
 62
    4
 10
391624.55338723812
 20
282526.7008544922
 11
391624.81316686998
 21
282526.3298507288
  0
LINE
  8
_0-0_
  6
CONTINUOUS
 62
    4
 10
391624.81316686998
 20
282526.3298507288
 11
391625.1334239929
 21
282526.00959360588
  0
LINE
  8
_0-0_
  6
CONTINUOUS
 62
    4
 10
391625.1334239929
 20
282526.00959360588
 11
391625.5044277563
 21
282525.74981397402
  0
LINE
  8
_0-0_
  6
CONTINUOUS
 62
    4
 10
391625.5044277563
 20
282525.74981397402
 11
391625.91490539856
 21
282525.55840510596
  0
LINE
  8
_0-0_
  6
CONTINUOUS
 62
    4
 10
391625.91490539856
 20
282525.55840510596
 11
391626.35238476418
 21
282525.44118286326
  0
LINE
  8
_0-0_
  6
CONTINUOUS
 62
    4
 10
391626.35238476418
 20
282525.44118286326
 11
391626.8035732641
 21
282525.4017089844
  0
LINE
  8
_0-0_
  6
CONTINUOUS
 62
    4
 10
391626.8035732641
 20
282525.4017089844
 11
391627.25476176402
 21
282525.44118286326
  0
LINE
  8
_0-0_
  6
CONTINUOUS
 62
    4
 10
391627.25476176402
 20
282525.44118286326
 11
391627.69224112964
 21
282525.55840510596
  0
LINE
  8
_0-0_
  6
CONTINUOUS
 62
    4
 10
391627.69224112964
 20
282525.55840510596
 11
391628.1027187719
 21
282525.74981397402
  0
LINE
  8
_0-0_
  6
CONTINUOUS
 62
    4
 10
391628.1027187719
 20
282525.74981397402
 11
391628.4737225353
 21
282526.00959360588
  0
LINE
  8
_0-0_
  6
CONTINUOUS
 62
    4
 10
391628.4737225353
 20
282526.00959360588
 11
391628.79397965822
 21
282526.3298507288
  0
LINE
  8
_0-0_
  6
CONTINUOUS
 62
    4
 10
391628.79397965822
 20
282526.3298507288
 11
391629.05375929008
 21
282526.7008544922
  0
LINE
  8
_0-0_
  6
CONTINUOUS
 62
    4
 10
391629.05375929008
 20
282526.7008544922
 11
391629.24516815814
 21
282527.11133213446
  0
LINE
  8
_0-0_
  6
CONTINUOUS
 62
    4
 10
391629.24516815814
 20
282527.11133213446
 11
391629.36239040084
 21
282527.54881150008
  0
LINE
  8
_0-0_
  6
CONTINUOUS
 62
    4
 10
391629.36239040084
 20
282527.54881150008
 11
391629.4018642797
 21
282528
  0
LINE
  8
_0-0_
  6
CONTINUOUS
 62
    4
 10
391629.4018642797
 20
282528
 11
391629.4018642797
 21
282528
  0
TEXT
  8
_0-0_
 62
    7
 10
391634.27492743079
 20
282529
 40
35.842222222222226
 41
0.9781003937007872
 50
0
  1
50
  0
TEXT
  8
_0-0_
 62
    7
 10
390972.97595315031
 20
283383.38284007419
 40
43.010666666666651
 41
0.9462939557981393
 50
0
  1
TILE 675-50
  0
ENDSEC
  0
EOF
