  0
SECTION
  2
HEADER
  9
$ACADVER
  1
AC1009
  9
$INSBASE
 10
0
 20
0
 30
0
  9
$EXTMIN
 10
0
 20
0
  9
$EXTMAX
 10
800000
 20
565856
  9
$LIMMIN
 10
0
 20
0
  9
$LIMMAX
 10
800000
 20
565856
  9
$LTSCALE
 40
8
  0
ENDSEC
  0
SECTION
  2
TABLES
  0
TABLE
  2
LTYPE
 70
     9
  0
LTYPE
  2
CONTINUOUS
 70
    64
  3
実線
 72
    65
 73
     0
 40
0.0
  0
LTYPE
  2
DASHED1
 70
    64
  3
--  --  --  --  --  --  --  --  
 72
    65
 73
     2
 40
2.5
 49
1.25
 49
-1.25
  0
LTYPE
  2
DASHED2
 70
    64
  3
----    ----    ----    ----    
 72
    65
 73
     2
 40
5.0
 49
2.5
 49
-2.5
  0
LTYPE
  2
DASHED3
 70
    64
  3
------  ------  ------  ------  
 72
    65
 73
     2
 40
5.0
 49
3.75
 49
-1.25
  0
LTYPE
  2
CENTER1
 70
    64
  3
----- - ----- - ----- - ----- - 
 72
    65
 73
     4
 40
10.0
 49
6.25
 49
-1.25
 49
1.25
 49
-1.25
  0
LTYPE
  2
CENTER2
 70
    64
  3
----------  --  ----------  --  
 72
    65
 73
     4
 40
20.0
 49
12.5
 49
-2.5
 49
2.5
 49
-2.5
  0
LTYPE
  2
PHANTOM1
 70
    64
  3
--- - - --- - - --- - - --- - - 
 72
    65
 73
     6
 40
10.0
 49
3.25
 49
-1.25
 49
1.25
 49
-1.25
 49
1.25
 49
-1.25
  0
LTYPE
  2
PHANTOM2
 70
    64
  3
--------  -  -  --------  -  -  
 72
    65
 73
     6
 40
20.0
 49
10.0
 49
-2.5
 49
1.25
 49
-2.5
 49
1.25
 49
-2.5
  0
LTYPE
  2
DOT
 70
    64
  3
-   -   -   -   -   -   -   -   
 72
    65
 73
     2
 40
2.5
 49
0.625
 49
-1.875
  0
LTYPE
  2
DUMMY
 70
    64
  3
ダミー
 72
    65
 73
     0
 40
0.0
  0
LTYPE
  2
RAND1
 70
    64
  3
ランダム線1
 72
    65
 73
     4
 40
10.0
 49
1.0
 49
-2.0
 49
3.0
 49
-4.0
  0
LTYPE
  2
RAND2
 70
    64
  3
ランダム線2
 72
    65
 73
     4
 40
14.0
 49
2.0
 49
-3.0
 49
4.0
 49
-5.0
  0
LTYPE
  2
RAND3
 70
    64
  3
ランダム線3
 72
    65
 73
     4
 40
18.0
 49
3.0
 49
-4.0
 49
5.0
 49
-6.0
  0
LTYPE
  2
RAND4
 70
    64
  3
ランダム線4
 72
    65
 73
     4
 40
22.0
 49
4.0
 49
-5.0
 49
6.0
 49
-7.0
  0
LTYPE
  2
RAND5
 70
    64
  3
ランダム線5
 72
    65
 73
     4
 40
26.0
 49
5.0
 49
-6.0
 49
7.0
 49
-8.0
  0
LTYPE
  2
LONG1
 70
    64
  3
----------  --  ----------  --  
 72
    65
 73
     4
 40
40.0
 49
32.5
 49
-2.5
 49
2.5
 49
-2.5
  0
LTYPE
  2
LONG2
 70
    64
  3
--------  -  -  --------  -  -  
 72
    65
 73
     6
 40
40.0
 49
30.0
 49
-2.5
 49
1.25
 49
-2.5
 49
1.25
 49
-2.5
  0
LTYPE
  2
LONG3
 70
    64
  3
+++++++++++++++..+++++++++++++++
 72
    65
 73
     2
 40
40.0
 49
37.5
 49
-2.5
  0
LTYPE
  2
LONG4
 70
    64
  3
+++++++++++++++..+++++++++++++++
 72
    65
 73
     2
 40
80.0
 49
75.0
 49
-5.0
  0
LTYPE
  2
LONG5
 70
    64
  3
----------  --  ----------  --  
 72
    65
 73
     4
 40
60.0
 49
37.5
 49
-7.5
 49
7.5
 49
-7.5
  0
LTYPE
  2
dashed
 70
   64
  3
-------   -------------   ------
 72
   65
 73
    2
 40
7.5
 49
6
 49
-1.5
  0
LTYPE
  2
dashed_spaced
 70
   64
  3
----        --------        ----
 72
   65
 73
    2
 40
12
 49
6
 49
-6
  0
LTYPE
  2
long_dashed_dotted
 70
   64
  3
------------- --- --------------
 72
   65
 73
    4
 40
15.25
 49
12
 49
-1.5
 49
0.25
 49
-1.5
  0
LTYPE
  2
long_dashed_double-dotted
 70
   64
  3
----------- --- --- ------------
 72
   65
 73
    6
 40
17
 49
12
 49
-1.5
 49
0.25
 49
-1.5
 49
0.25
 49
-1.5
  0
LTYPE
  2
long_dashed_triplicate-dotted
 70
   64
  3
--------- --- --- --- ----------
 72
   65
 73
    8
 40
18.75
 49
12
 49
-1.5
 49
0.25
 49
-1.5
 49
0.25
 49
-1.5
 49
0.25
 49
-1.5
  0
LTYPE
  2
dotted
 70
   64
  3
   -       -       -       -    
 72
   65
 73
    2
 40
1.75
 49
0.25
 49
-1.5
  0
LTYPE
  2
chain
 70
   64
  3
-------------- -- --------------
 72
   65
 73
    4
 40
18.5
 49
12
 49
-1.5
 49
3.5
 49
-1.5
  0
LTYPE
  2
chain_double_dash
 70
   64
  3
------------ -- -- -------------
 72
   65
 73
    6
 40
23.5
 49
12
 49
-1.5
 49
3.5
 49
-1.5
 49
3.5
 49
-1.5
  0
LTYPE
  2
dashed_dotted
 70
   64
  3
-----------     -     ----------
 72
   65
 73
    4
 40
9.25
 49
6
 49
-1.5
 49
0.25
 49
-1.5
  0
LTYPE
  2
double-dashed_dotted
 70
   64
  3
------   -----------   -   -----
 72
   65
 73
    6
 40
16.75
 49
6
 49
-1.5
 49
6
 49
-1.5
 49
0.25
 49
-1.5
  0
LTYPE
  2
dashed_double-dotted
 70
   64
  3
---------    -    -    ---------
 72
   65
 73
    6
 40
11
 49
6
 49
-1.5
 49
0.25
 49
-1.5
 49
0.25
 49
-1.5
  0
LTYPE
  2
double-dashed_double-dotted
 70
   64
  3
-----   ---------   -   -   ----
 72
   65
 73
    8
 40
18.5
 49
6
 49
-1.5
 49
6
 49
-1.5
 49
0.25
 49
-1.5
 49
0.25
 49
-1.5
  0
LTYPE
  2
dashed_triplicate-dotted
 70
   64
  3
-------    -    -    -    ------
 72
   65
 73
    8
 40
12.75
 49
6
 49
-1.5
 49
0.25
 49
-1.5
 49
0.25
 49
-1.5
 49
0.25
 49
-1.5
  0
LTYPE
  2
double-dashed_triplicate-dotted
 70
   64
  3
-----  ---------  -  -  -  -----
 72
   65
 73
   10
 40
20.25
 49
6
 49
-1.5
 49
6
 49
-1.5
 49
0.25
 49
-1.5
 49
0.25
 49
-1.5
 49
0.25
 49
-1.5
  0
LTYPE
  2
undefined
 70
   64
  3
--------------------------------
 72
   65
 73
    0
 40
0
  0
LTYPE
  2
_
 70
   64
  3
                                
 72
   65
 73
    0
 40
0
  0
LTYPE
  2
__18
 70
   64
  3
                                
 72
   65
 73
    0
 40
0
  0
LTYPE
  2
__19
 70
   64
  3
                                
 72
   65
 73
    0
 40
0
  0
LTYPE
  2
__20
 70
   64
  3
                                
 72
   65
 73
    0
 40
0
  0
LTYPE
  2
__21
 70
   64
  3
                                
 72
   65
 73
    0
 40
0
  0
LTYPE
  2
__22
 70
   64
  3
                                
 72
   65
 73
    0
 40
0
  0
LTYPE
  2
__23
 70
   64
  3
                                
 72
   65
 73
    0
 40
0
  0
LTYPE
  2
__24
 70
   64
  3
                                
 72
   65
 73
    0
 40
0
  0
LTYPE
  2
__25
 70
   64
  3
                                
 72
   65
 73
    0
 40
0
  0
LTYPE
  2
__26
 70
   64
  3
                                
 72
   65
 73
    0
 40
0
  0
LTYPE
  2
__27
 70
   64
  3
                                
 72
   65
 73
    0
 40
0
  0
LTYPE
  2
__28
 70
   64
  3
                                
 72
   65
 73
    0
 40
0
  0
LTYPE
  2
__29
 70
   64
  3
                                
 72
   65
 73
    0
 40
0
  0
LTYPE
  2
__30
 70
   64
  3
                                
 72
   65
 73
    0
 40
0
  0
LTYPE
  2
__31
 70
   64
  3
                                
 72
   65
 73
    0
 40
0
  0
LTYPE
  2
__32
 70
   64
  3
                                
 72
   65
 73
    0
 40
0
  0
ENDTAB
  0
TABLE
  2
STYLE
  5
3
100
AcDbSymbolTable
 70
     1
  0
STYLE
  5
10
100
AcDbSymbolTableRecord
100
AcDbTextStyleTableRecord
  2
STANDARD
 70
     0
 40
0.0
 41
1.0
 50
0.0
 71
     0
 42
0.2
  3
txt
  4
bigfont.shx
  0
STYLE
  5
26
100
AcDbSymbolTableRecord
100
AcDbTextStyleTableRecord
  2
TATEGAKI
 70
    68
 40
0.0
 41
1.0
 50
0.0
 71
     0
 42
1.0
  3
txt
  4
bigfont.shx
  0
ENDTAB
  0
TABLE
  2
LAYER
 70
    2
  0
LAYER
  2
_0-0_
 70
   64
 62
    7
  6
CONTINUOUS
  0
LAYER
  2
ADD_LINE
 70
   64
 62
    7
  6
CONTINUOUS
  0
ENDTAB
  0
ENDSEC
  0
SECTION
  2
BLOCKS
  0
ENDSEC
  0
SECTION
  2
ENTITIES
  0
LINE
  8
_0-0_
  6
CONTINUOUS
 62
    4
 10
391969.91479388333
 20
279984.77109311632
 11
392419.91479388333
 21
279984.77109311632
  0
LINE
  8
_0-0_
  6
CONTINUOUS
 62
    4
 10
391969.91479388333
 20
279984.77109311632
 11
391969.91479388333
 21
280884.77109311632
  0
LINE
  8
_0-0_
  6
CONTINUOUS
 62
    4
 10
392419.91479388333
 20
279984.77109311632
 11
392419.91479388333
 21
280884.77109311632
  0
LINE
  8
_0-0_
  6
CONTINUOUS
 62
    4
 10
391969.91479388333
 20
280884.77109311632
 11
392419.91479388333
 21
280884.77109311632
  0
LINE
  8
_0-0_
  6
CONTINUOUS
 62
    4
 10
392419.91479388333
 20
280939.34709049453
 11
392419.91479388333
 21
280989.34709049453
  0
LINE
  8
_0-0_
  6
CONTINUOUS
 62
    4
 10
392419.91479388333
 20
280939.34709049453
 11
391969.91479388333
 21
280939.34709049453
  0
LINE
  8
_0-0_
  6
CONTINUOUS
 62
    4
 10
392419.91479388333
 20
280989.34709049453
 11
391969.91479388333
 21
280989.34709049453
  0
LINE
  8
_0-0_
  6
CONTINUOUS
 62
    4
 10
391969.91479388333
 20
280939.34709049453
 11
391969.91479388333
 21
280989.34709049453
  0
LINE
  8
_0-0_
  6
CONTINUOUS
 62
    4
 10
392596.68515188509
 20
279984.77109311632
 11
392646.68515188509
 21
279984.77109311632
  0
LINE
  8
_0-0_
  6
CONTINUOUS
 62
    4
 10
392596.68515188509
 20
279984.77109311632
 11
392596.68515188509
 21
280884.77109311632
  0
LINE
  8
_0-0_
  6
CONTINUOUS
 62
    4
 10
392646.68515188509
 20
279984.77109311632
 11
392646.68515188509
 21
280884.77109311632
  0
LINE
  8
_0-0_
  6
CONTINUOUS
 62
    4
 10
392596.68515188509
 20
280884.77109311632
 11
392646.68515188509
 21
280884.77109311632
  0
LINE
  8
_0-0_
  6
CONTINUOUS
 62
    4
 10
391969.91479388333
 20
279934.77109311632
 11
391969.91479388333
 21
279884.77109311632
  0
LINE
  8
_0-0_
  6
CONTINUOUS
 62
    4
 10
392419.91479388333
 20
279934.77109311632
 11
392419.91479388333
 21
279884.77109311632
  0
LINE
  8
_0-0_
  6
CONTINUOUS
 62
    4
 10
391969.91479388333
 20
279884.77109311632
 11
392419.91479388333
 21
279884.77109311632
  0
LINE
  8
_0-0_
  6
CONTINUOUS
 62
    4
 10
391972.51308489894
 20
279884.77109311632
 11
391972.51308489894
 21
279884.77109311632
  0
LINE
  8
_0-0_
  6
CONTINUOUS
 62
    4
 10
391972.51308489894
 20
279884.77109311632
 11
391972.47361102008
 21
279885.22228161624
  0
LINE
  8
_0-0_
  6
CONTINUOUS
 62
    4
 10
391972.47361102008
 20
279885.22228161624
 11
391972.35638877738
 21
279885.65976098186
  0
LINE
  8
_0-0_
  6
CONTINUOUS
 62
    4
 10
391972.35638877738
 20
279885.65976098186
 11
391972.16497990931
 21
279886.07023862412
  0
LINE
  8
_0-0_
  6
CONTINUOUS
 62
    4
 10
391972.16497990931
 20
279886.07023862412
 11
391971.90520027746
 21
279886.44124238752
  0
LINE
  8
_0-0_
  6
CONTINUOUS
 62
    4
 10
391971.90520027746
 20
279886.44124238752
 11
391971.58494315454
 21
279886.76149951044
  0
LINE
  8
_0-0_
  6
CONTINUOUS
 62
    4
 10
391971.58494315454
 20
279886.76149951044
 11
391971.21393939113
 21
279887.0212791423
  0
LINE
  8
_0-0_
  6
CONTINUOUS
 62
    4
 10
391971.21393939113
 20
279887.0212791423
 11
391970.80346174887
 21
279887.21268801036
  0
LINE
  8
_0-0_
  6
CONTINUOUS
 62
    4
 10
391970.80346174887
 20
279887.21268801036
 11
391970.36598238326
 21
279887.32991025306
  0
LINE
  8
_0-0_
  6
CONTINUOUS
 62
    4
 10
391970.36598238326
 20
279887.32991025306
 11
391969.91479388333
 21
279887.36938413192
  0
LINE
  8
_0-0_
  6
CONTINUOUS
 62
    4
 10
391969.91479388333
 20
279887.36938413192
 11
391969.46360538341
 21
279887.32991025306
  0
LINE
  8
_0-0_
  6
CONTINUOUS
 62
    4
 10
391969.46360538341
 20
279887.32991025306
 11
391969.02612601779
 21
279887.21268801036
  0
LINE
  8
_0-0_
  6
CONTINUOUS
 62
    4
 10
391969.02612601779
 20
279887.21268801036
 11
391968.61564837553
 21
279887.0212791423
  0
LINE
  8
_0-0_
  6
CONTINUOUS
 62
    4
 10
391968.61564837553
 20
279887.0212791423
 11
391968.24464461213
 21
279886.76149951044
  0
LINE
  8
_0-0_
  6
CONTINUOUS
 62
    4
 10
391968.24464461213
 20
279886.76149951044
 11
391967.92438748921
 21
279886.44124238752
  0
LINE
  8
_0-0_
  6
CONTINUOUS
 62
    4
 10
391967.92438748921
 20
279886.44124238752
 11
391967.66460785735
 21
279886.07023862412
  0
LINE
  8
_0-0_
  6
CONTINUOUS
 62
    4
 10
391967.66460785735
 20
279886.07023862412
 11
391967.47319898929
 21
279885.65976098186
  0
LINE
  8
_0-0_
  6
CONTINUOUS
 62
    4
 10
391967.47319898929
 20
279885.65976098186
 11
391967.35597674659
 21
279885.22228161624
  0
LINE
  8
_0-0_
  6
CONTINUOUS
 62
    4
 10
391967.35597674659
 20
279885.22228161624
 11
391967.31650286773
 21
279884.77109311632
  0
LINE
  8
_0-0_
  6
CONTINUOUS
 62
    4
 10
391967.31650286773
 20
279884.77109311632
 11
391967.35597674659
 21
279884.31990461639
  0
LINE
  8
_0-0_
  6
CONTINUOUS
 62
    4
 10
391967.35597674659
 20
279884.31990461639
 11
391967.47319898929
 21
279883.88242525078
  0
LINE
  8
_0-0_
  6
CONTINUOUS
 62
    4
 10
391967.47319898929
 20
279883.88242525078
 11
391967.66460785735
 21
279883.47194760852
  0
LINE
  8
_0-0_
  6
CONTINUOUS
 62
    4
 10
391967.66460785735
 20
279883.47194760852
 11
391967.92438748921
 21
279883.10094384511
  0
LINE
  8
_0-0_
  6
CONTINUOUS
 62
    4
 10
391967.92438748921
 20
279883.10094384511
 11
391968.24464461213
 21
279882.7806867222
  0
LINE
  8
_0-0_
  6
CONTINUOUS
 62
    4
 10
391968.24464461213
 20
279882.7806867222
 11
391968.61564837553
 21
279882.52090709034
  0
LINE
  8
_0-0_
  6
CONTINUOUS
 62
    4
 10
391968.61564837553
 20
279882.52090709034
 11
391969.02612601779
 21
279882.32949822227
  0
LINE
  8
_0-0_
  6
CONTINUOUS
 62
    4
 10
391969.02612601779
 20
279882.32949822227
 11
391969.46360538341
 21
279882.21227597957
  0
LINE
  8
_0-0_
  6
CONTINUOUS
 62
    4
 10
391969.46360538341
 20
279882.21227597957
 11
391969.91479388333
 21
279882.17280210071
  0
LINE
  8
_0-0_
  6
CONTINUOUS
 62
    4
 10
391969.91479388333
 20
279882.17280210071
 11
391970.36598238326
 21
279882.21227597957
  0
LINE
  8
_0-0_
  6
CONTINUOUS
 62
    4
 10
391970.36598238326
 20
279882.21227597957
 11
391970.80346174887
 21
279882.32949822227
  0
LINE
  8
_0-0_
  6
CONTINUOUS
 62
    4
 10
391970.80346174887
 20
279882.32949822227
 11
391971.21393939113
 21
279882.52090709034
  0
LINE
  8
_0-0_
  6
CONTINUOUS
 62
    4
 10
391971.21393939113
 20
279882.52090709034
 11
391971.58494315454
 21
279882.7806867222
  0
LINE
  8
_0-0_
  6
CONTINUOUS
 62
    4
 10
391971.58494315454
 20
279882.7806867222
 11
391971.90520027746
 21
279883.10094384511
  0
LINE
  8
_0-0_
  6
CONTINUOUS
 62
    4
 10
391971.90520027746
 20
279883.10094384511
 11
391972.16497990931
 21
279883.47194760852
  0
LINE
  8
_0-0_
  6
CONTINUOUS
 62
    4
 10
391972.16497990931
 20
279883.47194760852
 11
391972.35638877738
 21
279883.88242525078
  0
LINE
  8
_0-0_
  6
CONTINUOUS
 62
    4
 10
391972.35638877738
 20
279883.88242525078
 11
391972.47361102008
 21
279884.31990461639
  0
LINE
  8
_0-0_
  6
CONTINUOUS
 62
    4
 10
391972.47361102008
 20
279884.31990461639
 11
391972.51308489894
 21
279884.77109311632
  0
LINE
  8
_0-0_
  6
CONTINUOUS
 62
    4
 10
391972.51308489894
 20
279884.77109311632
 11
391972.51308489894
 21
279884.77109311632
  0
LINE
  8
_0-0_
  6
CONTINUOUS
 62
    4
 10
392422.51308489894
 20
279884.77109311632
 11
392422.51308489894
 21
279884.77109311632
  0
LINE
  8
_0-0_
  6
CONTINUOUS
 62
    4
 10
392422.51308489894
 20
279884.77109311632
 11
392422.47361102008
 21
279885.22228161624
  0
LINE
  8
_0-0_
  6
CONTINUOUS
 62
    4
 10
392422.47361102008
 20
279885.22228161624
 11
392422.35638877738
 21
279885.65976098186
  0
LINE
  8
_0-0_
  6
CONTINUOUS
 62
    4
 10
392422.35638877738
 20
279885.65976098186
 11
392422.16497990931
 21
279886.07023862412
  0
LINE
  8
_0-0_
  6
CONTINUOUS
 62
    4
 10
392422.16497990931
 20
279886.07023862412
 11
392421.90520027746
 21
279886.44124238752
  0
LINE
  8
_0-0_
  6
CONTINUOUS
 62
    4
 10
392421.90520027746
 20
279886.44124238752
 11
392421.58494315454
 21
279886.76149951044
  0
LINE
  8
_0-0_
  6
CONTINUOUS
 62
    4
 10
392421.58494315454
 20
279886.76149951044
 11
392421.21393939113
 21
279887.0212791423
  0
LINE
  8
_0-0_
  6
CONTINUOUS
 62
    4
 10
392421.21393939113
 20
279887.0212791423
 11
392420.80346174887
 21
279887.21268801036
  0
LINE
  8
_0-0_
  6
CONTINUOUS
 62
    4
 10
392420.80346174887
 20
279887.21268801036
 11
392420.36598238326
 21
279887.32991025306
  0
LINE
  8
_0-0_
  6
CONTINUOUS
 62
    4
 10
392420.36598238326
 20
279887.32991025306
 11
392419.91479388333
 21
279887.36938413192
  0
LINE
  8
_0-0_
  6
CONTINUOUS
 62
    4
 10
392419.91479388333
 20
279887.36938413192
 11
392419.46360538341
 21
279887.32991025306
  0
LINE
  8
_0-0_
  6
CONTINUOUS
 62
    4
 10
392419.46360538341
 20
279887.32991025306
 11
392419.02612601779
 21
279887.21268801036
  0
LINE
  8
_0-0_
  6
CONTINUOUS
 62
    4
 10
392419.02612601779
 20
279887.21268801036
 11
392418.61564837553
 21
279887.0212791423
  0
LINE
  8
_0-0_
  6
CONTINUOUS
 62
    4
 10
392418.61564837553
 20
279887.0212791423
 11
392418.24464461213
 21
279886.76149951044
  0
LINE
  8
_0-0_
  6
CONTINUOUS
 62
    4
 10
392418.24464461213
 20
279886.76149951044
 11
392417.92438748921
 21
279886.44124238752
  0
LINE
  8
_0-0_
  6
CONTINUOUS
 62
    4
 10
392417.92438748921
 20
279886.44124238752
 11
392417.66460785735
 21
279886.07023862412
  0
LINE
  8
_0-0_
  6
CONTINUOUS
 62
    4
 10
392417.66460785735
 20
279886.07023862412
 11
392417.47319898929
 21
279885.65976098186
  0
LINE
  8
_0-0_
  6
CONTINUOUS
 62
    4
 10
392417.47319898929
 20
279885.65976098186
 11
392417.35597674659
 21
279885.22228161624
  0
LINE
  8
_0-0_
  6
CONTINUOUS
 62
    4
 10
392417.35597674659
 20
279885.22228161624
 11
392417.31650286773
 21
279884.77109311632
  0
LINE
  8
_0-0_
  6
CONTINUOUS
 62
    4
 10
392417.31650286773
 20
279884.77109311632
 11
392417.35597674659
 21
279884.31990461639
  0
LINE
  8
_0-0_
  6
CONTINUOUS
 62
    4
 10
392417.35597674659
 20
279884.31990461639
 11
392417.47319898929
 21
279883.88242525078
  0
LINE
  8
_0-0_
  6
CONTINUOUS
 62
    4
 10
392417.47319898929
 20
279883.88242525078
 11
392417.66460785735
 21
279883.47194760852
  0
LINE
  8
_0-0_
  6
CONTINUOUS
 62
    4
 10
392417.66460785735
 20
279883.47194760852
 11
392417.92438748921
 21
279883.10094384511
  0
LINE
  8
_0-0_
  6
CONTINUOUS
 62
    4
 10
392417.92438748921
 20
279883.10094384511
 11
392418.24464461213
 21
279882.7806867222
  0
LINE
  8
_0-0_
  6
CONTINUOUS
 62
    4
 10
392418.24464461213
 20
279882.7806867222
 11
392418.61564837553
 21
279882.52090709034
  0
LINE
  8
_0-0_
  6
CONTINUOUS
 62
    4
 10
392418.61564837553
 20
279882.52090709034
 11
392419.02612601779
 21
279882.32949822227
  0
LINE
  8
_0-0_
  6
CONTINUOUS
 62
    4
 10
392419.02612601779
 20
279882.32949822227
 11
392419.46360538341
 21
279882.21227597957
  0
LINE
  8
_0-0_
  6
CONTINUOUS
 62
    4
 10
392419.46360538341
 20
279882.21227597957
 11
392419.91479388333
 21
279882.17280210071
  0
LINE
  8
_0-0_
  6
CONTINUOUS
 62
    4
 10
392419.91479388333
 20
279882.17280210071
 11
392420.36598238326
 21
279882.21227597957
  0
LINE
  8
_0-0_
  6
CONTINUOUS
 62
    4
 10
392420.36598238326
 20
279882.21227597957
 11
392420.80346174887
 21
279882.32949822227
  0
LINE
  8
_0-0_
  6
CONTINUOUS
 62
    4
 10
392420.80346174887
 20
279882.32949822227
 11
392421.21393939113
 21
279882.52090709034
  0
LINE
  8
_0-0_
  6
CONTINUOUS
 62
    4
 10
392421.21393939113
 20
279882.52090709034
 11
392421.58494315454
 21
279882.7806867222
  0
LINE
  8
_0-0_
  6
CONTINUOUS
 62
    4
 10
392421.58494315454
 20
279882.7806867222
 11
392421.90520027746
 21
279883.10094384511
  0
LINE
  8
_0-0_
  6
CONTINUOUS
 62
    4
 10
392421.90520027746
 20
279883.10094384511
 11
392422.16497990931
 21
279883.47194760852
  0
LINE
  8
_0-0_
  6
CONTINUOUS
 62
    4
 10
392422.16497990931
 20
279883.47194760852
 11
392422.35638877738
 21
279883.88242525078
  0
LINE
  8
_0-0_
  6
CONTINUOUS
 62
    4
 10
392422.35638877738
 20
279883.88242525078
 11
392422.47361102008
 21
279884.31990461639
  0
LINE
  8
_0-0_
  6
CONTINUOUS
 62
    4
 10
392422.47361102008
 20
279884.31990461639
 11
392422.51308489894
 21
279884.77109311632
  0
LINE
  8
_0-0_
  6
CONTINUOUS
 62
    4
 10
392422.51308489894
 20
279884.77109311632
 11
392422.51308489894
 21
279884.77109311632
  0
TEXT
  8
_0-0_
 62
    7
 10
392168.62182513333
 20
279885.77109311632
 40
35.842222222222226
 41
0.9781003937007872
 50
0
  1
450
  0
LINE
  8
_0-0_
  6
CONTINUOUS
 62
    4
 10
392469.91479388333
 20
280884.77109311632
 11
392519.91479388333
 21
280884.77109311632
  0
LINE
  8
_0-0_
  6
CONTINUOUS
 62
    4
 10
392469.91479388333
 20
279984.77109311632
 11
392519.91479388333
 21
279984.77109311632
  0
LINE
  8
_0-0_
  6
CONTINUOUS
 62
    4
 10
392519.91479388333
 20
280884.77109311632
 11
392519.91479388333
 21
279984.77109311632
  0
LINE
  8
_0-0_
  6
CONTINUOUS
 62
    4
 10
392522.51308489894
 20
280884.77109311632
 11
392522.51308489894
 21
280884.77109311632
  0
LINE
  8
_0-0_
  6
CONTINUOUS
 62
    4
 10
392522.51308489894
 20
280884.77109311632
 11
392522.47361102008
 21
280885.22228161624
  0
LINE
  8
_0-0_
  6
CONTINUOUS
 62
    4
 10
392522.47361102008
 20
280885.22228161624
 11
392522.35638877738
 21
280885.65976098186
  0
LINE
  8
_0-0_
  6
CONTINUOUS
 62
    4
 10
392522.35638877738
 20
280885.65976098186
 11
392522.16497990931
 21
280886.07023862412
  0
LINE
  8
_0-0_
  6
CONTINUOUS
 62
    4
 10
392522.16497990931
 20
280886.07023862412
 11
392521.90520027746
 21
280886.44124238752
  0
LINE
  8
_0-0_
  6
CONTINUOUS
 62
    4
 10
392521.90520027746
 20
280886.44124238752
 11
392521.58494315454
 21
280886.76149951044
  0
LINE
  8
_0-0_
  6
CONTINUOUS
 62
    4
 10
392521.58494315454
 20
280886.76149951044
 11
392521.21393939113
 21
280887.0212791423
  0
LINE
  8
_0-0_
  6
CONTINUOUS
 62
    4
 10
392521.21393939113
 20
280887.0212791423
 11
392520.80346174887
 21
280887.21268801036
  0
LINE
  8
_0-0_
  6
CONTINUOUS
 62
    4
 10
392520.80346174887
 20
280887.21268801036
 11
392520.36598238326
 21
280887.32991025306
  0
LINE
  8
_0-0_
  6
CONTINUOUS
 62
    4
 10
392520.36598238326
 20
280887.32991025306
 11
392519.91479388333
 21
280887.36938413192
  0
LINE
  8
_0-0_
  6
CONTINUOUS
 62
    4
 10
392519.91479388333
 20
280887.36938413192
 11
392519.46360538341
 21
280887.32991025306
  0
LINE
  8
_0-0_
  6
CONTINUOUS
 62
    4
 10
392519.46360538341
 20
280887.32991025306
 11
392519.02612601779
 21
280887.21268801036
  0
LINE
  8
_0-0_
  6
CONTINUOUS
 62
    4
 10
392519.02612601779
 20
280887.21268801036
 11
392518.61564837553
 21
280887.0212791423
  0
LINE
  8
_0-0_
  6
CONTINUOUS
 62
    4
 10
392518.61564837553
 20
280887.0212791423
 11
392518.24464461213
 21
280886.76149951044
  0
LINE
  8
_0-0_
  6
CONTINUOUS
 62
    4
 10
392518.24464461213
 20
280886.76149951044
 11
392517.92438748921
 21
280886.44124238752
  0
LINE
  8
_0-0_
  6
CONTINUOUS
 62
    4
 10
392517.92438748921
 20
280886.44124238752
 11
392517.66460785735
 21
280886.07023862412
  0
LINE
  8
_0-0_
  6
CONTINUOUS
 62
    4
 10
392517.66460785735
 20
280886.07023862412
 11
392517.47319898929
 21
280885.65976098186
  0
LINE
  8
_0-0_
  6
CONTINUOUS
 62
    4
 10
392517.47319898929
 20
280885.65976098186
 11
392517.35597674659
 21
280885.22228161624
  0
LINE
  8
_0-0_
  6
CONTINUOUS
 62
    4
 10
392517.35597674659
 20
280885.22228161624
 11
392517.31650286773
 21
280884.77109311632
  0
LINE
  8
_0-0_
  6
CONTINUOUS
 62
    4
 10
392517.31650286773
 20
280884.77109311632
 11
392517.35597674659
 21
280884.31990461639
  0
LINE
  8
_0-0_
  6
CONTINUOUS
 62
    4
 10
392517.35597674659
 20
280884.31990461639
 11
392517.47319898929
 21
280883.88242525078
  0
LINE
  8
_0-0_
  6
CONTINUOUS
 62
    4
 10
392517.47319898929
 20
280883.88242525078
 11
392517.66460785735
 21
280883.47194760852
  0
LINE
  8
_0-0_
  6
CONTINUOUS
 62
    4
 10
392517.66460785735
 20
280883.47194760852
 11
392517.92438748921
 21
280883.10094384511
  0
LINE
  8
_0-0_
  6
CONTINUOUS
 62
    4
 10
392517.92438748921
 20
280883.10094384511
 11
392518.24464461213
 21
280882.7806867222
  0
LINE
  8
_0-0_
  6
CONTINUOUS
 62
    4
 10
392518.24464461213
 20
280882.7806867222
 11
392518.61564837553
 21
280882.52090709034
  0
LINE
  8
_0-0_
  6
CONTINUOUS
 62
    4
 10
392518.61564837553
 20
280882.52090709034
 11
392519.02612601779
 21
280882.32949822227
  0
LINE
  8
_0-0_
  6
CONTINUOUS
 62
    4
 10
392519.02612601779
 20
280882.32949822227
 11
392519.46360538341
 21
280882.21227597957
  0
LINE
  8
_0-0_
  6
CONTINUOUS
 62
    4
 10
392519.46360538341
 20
280882.21227597957
 11
392519.91479388333
 21
280882.17280210071
  0
LINE
  8
_0-0_
  6
CONTINUOUS
 62
    4
 10
392519.91479388333
 20
280882.17280210071
 11
392520.36598238326
 21
280882.21227597957
  0
LINE
  8
_0-0_
  6
CONTINUOUS
 62
    4
 10
392520.36598238326
 20
280882.21227597957
 11
392520.80346174887
 21
280882.32949822227
  0
LINE
  8
_0-0_
  6
CONTINUOUS
 62
    4
 10
392520.80346174887
 20
280882.32949822227
 11
392521.21393939113
 21
280882.52090709034
  0
LINE
  8
_0-0_
  6
CONTINUOUS
 62
    4
 10
392521.21393939113
 20
280882.52090709034
 11
392521.58494315454
 21
280882.7806867222
  0
LINE
  8
_0-0_
  6
CONTINUOUS
 62
    4
 10
392521.58494315454
 20
280882.7806867222
 11
392521.90520027746
 21
280883.10094384511
  0
LINE
  8
_0-0_
  6
CONTINUOUS
 62
    4
 10
392521.90520027746
 20
280883.10094384511
 11
392522.16497990931
 21
280883.47194760852
  0
LINE
  8
_0-0_
  6
CONTINUOUS
 62
    4
 10
392522.16497990931
 20
280883.47194760852
 11
392522.35638877738
 21
280883.88242525078
  0
LINE
  8
_0-0_
  6
CONTINUOUS
 62
    4
 10
392522.35638877738
 20
280883.88242525078
 11
392522.47361102008
 21
280884.31990461639
  0
LINE
  8
_0-0_
  6
CONTINUOUS
 62
    4
 10
392522.47361102008
 20
280884.31990461639
 11
392522.51308489894
 21
280884.77109311632
  0
LINE
  8
_0-0_
  6
CONTINUOUS
 62
    4
 10
392522.51308489894
 20
280884.77109311632
 11
392522.51308489894
 21
280884.77109311632
  0
LINE
  8
_0-0_
  6
CONTINUOUS
 62
    4
 10
392522.51308489894
 20
279984.77109311632
 11
392522.51308489894
 21
279984.77109311632
  0
LINE
  8
_0-0_
  6
CONTINUOUS
 62
    4
 10
392522.51308489894
 20
279984.77109311632
 11
392522.47361102008
 21
279985.22228161624
  0
LINE
  8
_0-0_
  6
CONTINUOUS
 62
    4
 10
392522.47361102008
 20
279985.22228161624
 11
392522.35638877738
 21
279985.65976098186
  0
LINE
  8
_0-0_
  6
CONTINUOUS
 62
    4
 10
392522.35638877738
 20
279985.65976098186
 11
392522.16497990931
 21
279986.07023862412
  0
LINE
  8
_0-0_
  6
CONTINUOUS
 62
    4
 10
392522.16497990931
 20
279986.07023862412
 11
392521.90520027746
 21
279986.44124238752
  0
LINE
  8
_0-0_
  6
CONTINUOUS
 62
    4
 10
392521.90520027746
 20
279986.44124238752
 11
392521.58494315454
 21
279986.76149951044
  0
LINE
  8
_0-0_
  6
CONTINUOUS
 62
    4
 10
392521.58494315454
 20
279986.76149951044
 11
392521.21393939113
 21
279987.0212791423
  0
LINE
  8
_0-0_
  6
CONTINUOUS
 62
    4
 10
392521.21393939113
 20
279987.0212791423
 11
392520.80346174887
 21
279987.21268801036
  0
LINE
  8
_0-0_
  6
CONTINUOUS
 62
    4
 10
392520.80346174887
 20
279987.21268801036
 11
392520.36598238326
 21
279987.32991025306
  0
LINE
  8
_0-0_
  6
CONTINUOUS
 62
    4
 10
392520.36598238326
 20
279987.32991025306
 11
392519.91479388333
 21
279987.36938413192
  0
LINE
  8
_0-0_
  6
CONTINUOUS
 62
    4
 10
392519.91479388333
 20
279987.36938413192
 11
392519.46360538341
 21
279987.32991025306
  0
LINE
  8
_0-0_
  6
CONTINUOUS
 62
    4
 10
392519.46360538341
 20
279987.32991025306
 11
392519.02612601779
 21
279987.21268801036
  0
LINE
  8
_0-0_
  6
CONTINUOUS
 62
    4
 10
392519.02612601779
 20
279987.21268801036
 11
392518.61564837553
 21
279987.0212791423
  0
LINE
  8
_0-0_
  6
CONTINUOUS
 62
    4
 10
392518.61564837553
 20
279987.0212791423
 11
392518.24464461213
 21
279986.76149951044
  0
LINE
  8
_0-0_
  6
CONTINUOUS
 62
    4
 10
392518.24464461213
 20
279986.76149951044
 11
392517.92438748921
 21
279986.44124238752
  0
LINE
  8
_0-0_
  6
CONTINUOUS
 62
    4
 10
392517.92438748921
 20
279986.44124238752
 11
392517.66460785735
 21
279986.07023862412
  0
LINE
  8
_0-0_
  6
CONTINUOUS
 62
    4
 10
392517.66460785735
 20
279986.07023862412
 11
392517.47319898929
 21
279985.65976098186
  0
LINE
  8
_0-0_
  6
CONTINUOUS
 62
    4
 10
392517.47319898929
 20
279985.65976098186
 11
392517.35597674659
 21
279985.22228161624
  0
LINE
  8
_0-0_
  6
CONTINUOUS
 62
    4
 10
392517.35597674659
 20
279985.22228161624
 11
392517.31650286773
 21
279984.77109311632
  0
LINE
  8
_0-0_
  6
CONTINUOUS
 62
    4
 10
392517.31650286773
 20
279984.77109311632
 11
392517.35597674659
 21
279984.31990461639
  0
LINE
  8
_0-0_
  6
CONTINUOUS
 62
    4
 10
392517.35597674659
 20
279984.31990461639
 11
392517.47319898929
 21
279983.88242525078
  0
LINE
  8
_0-0_
  6
CONTINUOUS
 62
    4
 10
392517.47319898929
 20
279983.88242525078
 11
392517.66460785735
 21
279983.47194760852
  0
LINE
  8
_0-0_
  6
CONTINUOUS
 62
    4
 10
392517.66460785735
 20
279983.47194760852
 11
392517.92438748921
 21
279983.10094384511
  0
LINE
  8
_0-0_
  6
CONTINUOUS
 62
    4
 10
392517.92438748921
 20
279983.10094384511
 11
392518.24464461213
 21
279982.7806867222
  0
LINE
  8
_0-0_
  6
CONTINUOUS
 62
    4
 10
392518.24464461213
 20
279982.7806867222
 11
392518.61564837553
 21
279982.52090709034
  0
LINE
  8
_0-0_
  6
CONTINUOUS
 62
    4
 10
392518.61564837553
 20
279982.52090709034
 11
392519.02612601779
 21
279982.32949822227
  0
LINE
  8
_0-0_
  6
CONTINUOUS
 62
    4
 10
392519.02612601779
 20
279982.32949822227
 11
392519.46360538341
 21
279982.21227597957
  0
LINE
  8
_0-0_
  6
CONTINUOUS
 62
    4
 10
392519.46360538341
 20
279982.21227597957
 11
392519.91479388333
 21
279982.17280210071
  0
LINE
  8
_0-0_
  6
CONTINUOUS
 62
    4
 10
392519.91479388333
 20
279982.17280210071
 11
392520.36598238326
 21
279982.21227597957
  0
LINE
  8
_0-0_
  6
CONTINUOUS
 62
    4
 10
392520.36598238326
 20
279982.21227597957
 11
392520.80346174887
 21
279982.32949822227
  0
LINE
  8
_0-0_
  6
CONTINUOUS
 62
    4
 10
392520.80346174887
 20
279982.32949822227
 11
392521.21393939113
 21
279982.52090709034
  0
LINE
  8
_0-0_
  6
CONTINUOUS
 62
    4
 10
392521.21393939113
 20
279982.52090709034
 11
392521.58494315454
 21
279982.7806867222
  0
LINE
  8
_0-0_
  6
CONTINUOUS
 62
    4
 10
392521.58494315454
 20
279982.7806867222
 11
392521.90520027746
 21
279983.10094384511
  0
LINE
  8
_0-0_
  6
CONTINUOUS
 62
    4
 10
392521.90520027746
 20
279983.10094384511
 11
392522.16497990931
 21
279983.47194760852
  0
LINE
  8
_0-0_
  6
CONTINUOUS
 62
    4
 10
392522.16497990931
 20
279983.47194760852
 11
392522.35638877738
 21
279983.88242525078
  0
LINE
  8
_0-0_
  6
CONTINUOUS
 62
    4
 10
392522.35638877738
 20
279983.88242525078
 11
392522.47361102008
 21
279984.31990461639
  0
LINE
  8
_0-0_
  6
CONTINUOUS
 62
    4
 10
392522.47361102008
 20
279984.31990461639
 11
392522.51308489894
 21
279984.77109311632
  0
LINE
  8
_0-0_
  6
CONTINUOUS
 62
    4
 10
392522.51308489894
 20
279984.77109311632
 11
392522.51308489894
 21
279984.77109311632
  0
TEXT
  8
_0-0_
 62
    7
 10
392518.91479388333
 20
280408.47812436632
 40
35.842222222222226
 41
0.9781003937007872
 50
90
  1
900
  0
LINE
  8
_0-0_
  6
CONTINUOUS
 62
    4
 10
392469.91479388333
 20
280939.34709049453
 11
392519.91479388333
 21
280939.34709049453
  0
LINE
  8
_0-0_
  6
CONTINUOUS
 62
    4
 10
392469.91479388333
 20
280989.34709049453
 11
392519.91479388333
 21
280989.34709049453
  0
LINE
  8
_0-0_
  6
CONTINUOUS
 62
    4
 10
392519.91479388333
 20
280939.34709049453
 11
392519.91479388333
 21
280989.34709049453
  0
LINE
  8
_0-0_
  6
CONTINUOUS
 62
    4
 10
392522.51308489894
 20
280939.34709049453
 11
392522.51308489894
 21
280939.34709049453
  0
LINE
  8
_0-0_
  6
CONTINUOUS
 62
    4
 10
392522.51308489894
 20
280939.34709049453
 11
392522.47361102008
 21
280939.79827899445
  0
LINE
  8
_0-0_
  6
CONTINUOUS
 62
    4
 10
392522.47361102008
 20
280939.79827899445
 11
392522.35638877738
 21
280940.23575836007
  0
LINE
  8
_0-0_
  6
CONTINUOUS
 62
    4
 10
392522.35638877738
 20
280940.23575836007
 11
392522.16497990931
 21
280940.64623600233
  0
LINE
  8
_0-0_
  6
CONTINUOUS
 62
    4
 10
392522.16497990931
 20
280940.64623600233
 11
392521.90520027746
 21
280941.01723976573
  0
LINE
  8
_0-0_
  6
CONTINUOUS
 62
    4
 10
392521.90520027746
 20
280941.01723976573
 11
392521.58494315454
 21
280941.33749688865
  0
LINE
  8
_0-0_
  6
CONTINUOUS
 62
    4
 10
392521.58494315454
 20
280941.33749688865
 11
392521.21393939113
 21
280941.59727652051
  0
LINE
  8
_0-0_
  6
CONTINUOUS
 62
    4
 10
392521.21393939113
 20
280941.59727652051
 11
392520.80346174887
 21
280941.78868538857
  0
LINE
  8
_0-0_
  6
CONTINUOUS
 62
    4
 10
392520.80346174887
 20
280941.78868538857
 11
392520.36598238326
 21
280941.90590763127
  0
LINE
  8
_0-0_
  6
CONTINUOUS
 62
    4
 10
392520.36598238326
 20
280941.90590763127
 11
392519.91479388333
 21
280941.94538151013
  0
LINE
  8
_0-0_
  6
CONTINUOUS
 62
    4
 10
392519.91479388333
 20
280941.94538151013
 11
392519.46360538341
 21
280941.90590763127
  0
LINE
  8
_0-0_
  6
CONTINUOUS
 62
    4
 10
392519.46360538341
 20
280941.90590763127
 11
392519.02612601779
 21
280941.78868538857
  0
LINE
  8
_0-0_
  6
CONTINUOUS
 62
    4
 10
392519.02612601779
 20
280941.78868538857
 11
392518.61564837553
 21
280941.59727652051
  0
LINE
  8
_0-0_
  6
CONTINUOUS
 62
    4
 10
392518.61564837553
 20
280941.59727652051
 11
392518.24464461213
 21
280941.33749688865
  0
LINE
  8
_0-0_
  6
CONTINUOUS
 62
    4
 10
392518.24464461213
 20
280941.33749688865
 11
392517.92438748921
 21
280941.01723976573
  0
LINE
  8
_0-0_
  6
CONTINUOUS
 62
    4
 10
392517.92438748921
 20
280941.01723976573
 11
392517.66460785735
 21
280940.64623600233
  0
LINE
  8
_0-0_
  6
CONTINUOUS
 62
    4
 10
392517.66460785735
 20
280940.64623600233
 11
392517.47319898929
 21
280940.23575836007
  0
LINE
  8
_0-0_
  6
CONTINUOUS
 62
    4
 10
392517.47319898929
 20
280940.23575836007
 11
392517.35597674659
 21
280939.79827899445
  0
LINE
  8
_0-0_
  6
CONTINUOUS
 62
    4
 10
392517.35597674659
 20
280939.79827899445
 11
392517.31650286773
 21
280939.34709049453
  0
LINE
  8
_0-0_
  6
CONTINUOUS
 62
    4
 10
392517.31650286773
 20
280939.34709049453
 11
392517.35597674659
 21
280938.89590199461
  0
LINE
  8
_0-0_
  6
CONTINUOUS
 62
    4
 10
392517.35597674659
 20
280938.89590199461
 11
392517.47319898929
 21
280938.45842262899
  0
LINE
  8
_0-0_
  6
CONTINUOUS
 62
    4
 10
392517.47319898929
 20
280938.45842262899
 11
392517.66460785735
 21
280938.04794498673
  0
LINE
  8
_0-0_
  6
CONTINUOUS
 62
    4
 10
392517.66460785735
 20
280938.04794498673
 11
392517.92438748921
 21
280937.67694122333
  0
LINE
  8
_0-0_
  6
CONTINUOUS
 62
    4
 10
392517.92438748921
 20
280937.67694122333
 11
392518.24464461213
 21
280937.35668410041
  0
LINE
  8
_0-0_
  6
CONTINUOUS
 62
    4
 10
392518.24464461213
 20
280937.35668410041
 11
392518.61564837553
 21
280937.09690446855
  0
LINE
  8
_0-0_
  6
CONTINUOUS
 62
    4
 10
392518.61564837553
 20
280937.09690446855
 11
392519.02612601779
 21
280936.90549560048
  0
LINE
  8
_0-0_
  6
CONTINUOUS
 62
    4
 10
392519.02612601779
 20
280936.90549560048
 11
392519.46360538341
 21
280936.78827335779
  0
LINE
  8
_0-0_
  6
CONTINUOUS
 62
    4
 10
392519.46360538341
 20
280936.78827335779
 11
392519.91479388333
 21
280936.74879947893
  0
LINE
  8
_0-0_
  6
CONTINUOUS
 62
    4
 10
392519.91479388333
 20
280936.74879947893
 11
392520.36598238326
 21
280936.78827335779
  0
LINE
  8
_0-0_
  6
CONTINUOUS
 62
    4
 10
392520.36598238326
 20
280936.78827335779
 11
392520.80346174887
 21
280936.90549560048
  0
LINE
  8
_0-0_
  6
CONTINUOUS
 62
    4
 10
392520.80346174887
 20
280936.90549560048
 11
392521.21393939113
 21
280937.09690446855
  0
LINE
  8
_0-0_
  6
CONTINUOUS
 62
    4
 10
392521.21393939113
 20
280937.09690446855
 11
392521.58494315454
 21
280937.35668410041
  0
LINE
  8
_0-0_
  6
CONTINUOUS
 62
    4
 10
392521.58494315454
 20
280937.35668410041
 11
392521.90520027746
 21
280937.67694122333
  0
LINE
  8
_0-0_
  6
CONTINUOUS
 62
    4
 10
392521.90520027746
 20
280937.67694122333
 11
392522.16497990931
 21
280938.04794498673
  0
LINE
  8
_0-0_
  6
CONTINUOUS
 62
    4
 10
392522.16497990931
 20
280938.04794498673
 11
392522.35638877738
 21
280938.45842262899
  0
LINE
  8
_0-0_
  6
CONTINUOUS
 62
    4
 10
392522.35638877738
 20
280938.45842262899
 11
392522.47361102008
 21
280938.89590199461
  0
LINE
  8
_0-0_
  6
CONTINUOUS
 62
    4
 10
392522.47361102008
 20
280938.89590199461
 11
392522.51308489894
 21
280939.34709049453
  0
LINE
  8
_0-0_
  6
CONTINUOUS
 62
    4
 10
392522.51308489894
 20
280939.34709049453
 11
392522.51308489894
 21
280939.34709049453
  0
LINE
  8
_0-0_
  6
CONTINUOUS
 62
    4
 10
392522.51308489894
 20
280989.34709049453
 11
392522.51308489894
 21
280989.34709049453
  0
LINE
  8
_0-0_
  6
CONTINUOUS
 62
    4
 10
392522.51308489894
 20
280989.34709049453
 11
392522.47361102008
 21
280989.79827899445
  0
LINE
  8
_0-0_
  6
CONTINUOUS
 62
    4
 10
392522.47361102008
 20
280989.79827899445
 11
392522.35638877738
 21
280990.23575836007
  0
LINE
  8
_0-0_
  6
CONTINUOUS
 62
    4
 10
392522.35638877738
 20
280990.23575836007
 11
392522.16497990931
 21
280990.64623600233
  0
LINE
  8
_0-0_
  6
CONTINUOUS
 62
    4
 10
392522.16497990931
 20
280990.64623600233
 11
392521.90520027746
 21
280991.01723976573
  0
LINE
  8
_0-0_
  6
CONTINUOUS
 62
    4
 10
392521.90520027746
 20
280991.01723976573
 11
392521.58494315454
 21
280991.33749688865
  0
LINE
  8
_0-0_
  6
CONTINUOUS
 62
    4
 10
392521.58494315454
 20
280991.33749688865
 11
392521.21393939113
 21
280991.59727652051
  0
LINE
  8
_0-0_
  6
CONTINUOUS
 62
    4
 10
392521.21393939113
 20
280991.59727652051
 11
392520.80346174887
 21
280991.78868538857
  0
LINE
  8
_0-0_
  6
CONTINUOUS
 62
    4
 10
392520.80346174887
 20
280991.78868538857
 11
392520.36598238326
 21
280991.90590763127
  0
LINE
  8
_0-0_
  6
CONTINUOUS
 62
    4
 10
392520.36598238326
 20
280991.90590763127
 11
392519.91479388333
 21
280991.94538151013
  0
LINE
  8
_0-0_
  6
CONTINUOUS
 62
    4
 10
392519.91479388333
 20
280991.94538151013
 11
392519.46360538341
 21
280991.90590763127
  0
LINE
  8
_0-0_
  6
CONTINUOUS
 62
    4
 10
392519.46360538341
 20
280991.90590763127
 11
392519.02612601779
 21
280991.78868538857
  0
LINE
  8
_0-0_
  6
CONTINUOUS
 62
    4
 10
392519.02612601779
 20
280991.78868538857
 11
392518.61564837553
 21
280991.59727652051
  0
LINE
  8
_0-0_
  6
CONTINUOUS
 62
    4
 10
392518.61564837553
 20
280991.59727652051
 11
392518.24464461213
 21
280991.33749688865
  0
LINE
  8
_0-0_
  6
CONTINUOUS
 62
    4
 10
392518.24464461213
 20
280991.33749688865
 11
392517.92438748921
 21
280991.01723976573
  0
LINE
  8
_0-0_
  6
CONTINUOUS
 62
    4
 10
392517.92438748921
 20
280991.01723976573
 11
392517.66460785735
 21
280990.64623600233
  0
LINE
  8
_0-0_
  6
CONTINUOUS
 62
    4
 10
392517.66460785735
 20
280990.64623600233
 11
392517.47319898929
 21
280990.23575836007
  0
LINE
  8
_0-0_
  6
CONTINUOUS
 62
    4
 10
392517.47319898929
 20
280990.23575836007
 11
392517.35597674659
 21
280989.79827899445
  0
LINE
  8
_0-0_
  6
CONTINUOUS
 62
    4
 10
392517.35597674659
 20
280989.79827899445
 11
392517.31650286773
 21
280989.34709049453
  0
LINE
  8
_0-0_
  6
CONTINUOUS
 62
    4
 10
392517.31650286773
 20
280989.34709049453
 11
392517.35597674659
 21
280988.89590199461
  0
LINE
  8
_0-0_
  6
CONTINUOUS
 62
    4
 10
392517.35597674659
 20
280988.89590199461
 11
392517.47319898929
 21
280988.45842262899
  0
LINE
  8
_0-0_
  6
CONTINUOUS
 62
    4
 10
392517.47319898929
 20
280988.45842262899
 11
392517.66460785735
 21
280988.04794498673
  0
LINE
  8
_0-0_
  6
CONTINUOUS
 62
    4
 10
392517.66460785735
 20
280988.04794498673
 11
392517.92438748921
 21
280987.67694122333
  0
LINE
  8
_0-0_
  6
CONTINUOUS
 62
    4
 10
392517.92438748921
 20
280987.67694122333
 11
392518.24464461213
 21
280987.35668410041
  0
LINE
  8
_0-0_
  6
CONTINUOUS
 62
    4
 10
392518.24464461213
 20
280987.35668410041
 11
392518.61564837553
 21
280987.09690446855
  0
LINE
  8
_0-0_
  6
CONTINUOUS
 62
    4
 10
392518.61564837553
 20
280987.09690446855
 11
392519.02612601779
 21
280986.90549560048
  0
LINE
  8
_0-0_
  6
CONTINUOUS
 62
    4
 10
392519.02612601779
 20
280986.90549560048
 11
392519.46360538341
 21
280986.78827335779
  0
LINE
  8
_0-0_
  6
CONTINUOUS
 62
    4
 10
392519.46360538341
 20
280986.78827335779
 11
392519.91479388333
 21
280986.74879947893
  0
LINE
  8
_0-0_
  6
CONTINUOUS
 62
    4
 10
392519.91479388333
 20
280986.74879947893
 11
392520.36598238326
 21
280986.78827335779
  0
LINE
  8
_0-0_
  6
CONTINUOUS
 62
    4
 10
392520.36598238326
 20
280986.78827335779
 11
392520.80346174887
 21
280986.90549560048
  0
LINE
  8
_0-0_
  6
CONTINUOUS
 62
    4
 10
392520.80346174887
 20
280986.90549560048
 11
392521.21393939113
 21
280987.09690446855
  0
LINE
  8
_0-0_
  6
CONTINUOUS
 62
    4
 10
392521.21393939113
 20
280987.09690446855
 11
392521.58494315454
 21
280987.35668410041
  0
LINE
  8
_0-0_
  6
CONTINUOUS
 62
    4
 10
392521.58494315454
 20
280987.35668410041
 11
392521.90520027746
 21
280987.67694122333
  0
LINE
  8
_0-0_
  6
CONTINUOUS
 62
    4
 10
392521.90520027746
 20
280987.67694122333
 11
392522.16497990931
 21
280988.04794498673
  0
LINE
  8
_0-0_
  6
CONTINUOUS
 62
    4
 10
392522.16497990931
 20
280988.04794498673
 11
392522.35638877738
 21
280988.45842262899
  0
LINE
  8
_0-0_
  6
CONTINUOUS
 62
    4
 10
392522.35638877738
 20
280988.45842262899
 11
392522.47361102008
 21
280988.89590199461
  0
LINE
  8
_0-0_
  6
CONTINUOUS
 62
    4
 10
392522.47361102008
 20
280988.89590199461
 11
392522.51308489894
 21
280989.34709049453
  0
LINE
  8
_0-0_
  6
CONTINUOUS
 62
    4
 10
392522.51308489894
 20
280989.34709049453
 11
392522.51308489894
 21
280989.34709049453
  0
TEXT
  8
_0-0_
 62
    7
 10
392518.91479388333
 20
280946.81844466121
 40
35.842222222222226
 41
0.9781003937007872
 50
90
  1
50
  0
LINE
  8
_0-0_
  6
CONTINUOUS
 62
    4
 10
392646.68515188509
 20
279934.77109311632
 11
392646.68515188509
 21
279884.77109311632
  0
LINE
  8
_0-0_
  6
CONTINUOUS
 62
    4
 10
392596.68515188509
 20
279934.77109311632
 11
392596.68515188509
 21
279884.77109311632
  0
LINE
  8
_0-0_
  6
CONTINUOUS
 62
    4
 10
392646.68515188509
 20
279884.77109311632
 11
392596.68515188509
 21
279884.77109311632
  0
LINE
  8
_0-0_
  6
CONTINUOUS
 62
    4
 10
392649.28344290069
 20
279884.77109311632
 11
392649.28344290069
 21
279884.77109311632
  0
LINE
  8
_0-0_
  6
CONTINUOUS
 62
    4
 10
392649.28344290069
 20
279884.77109311632
 11
392649.24396902183
 21
279885.22228161624
  0
LINE
  8
_0-0_
  6
CONTINUOUS
 62
    4
 10
392649.24396902183
 20
279885.22228161624
 11
392649.12674677913
 21
279885.65976098186
  0
LINE
  8
_0-0_
  6
CONTINUOUS
 62
    4
 10
392649.12674677913
 20
279885.65976098186
 11
392648.93533791107
 21
279886.07023862412
  0
LINE
  8
_0-0_
  6
CONTINUOUS
 62
    4
 10
392648.93533791107
 20
279886.07023862412
 11
392648.67555827921
 21
279886.44124238752
  0
LINE
  8
_0-0_
  6
CONTINUOUS
 62
    4
 10
392648.67555827921
 20
279886.44124238752
 11
392648.35530115629
 21
279886.76149951044
  0
LINE
  8
_0-0_
  6
CONTINUOUS
 62
    4
 10
392648.35530115629
 20
279886.76149951044
 11
392647.98429739289
 21
279887.0212791423
  0
LINE
  8
_0-0_
  6
CONTINUOUS
 62
    4
 10
392647.98429739289
 20
279887.0212791423
 11
392647.57381975063
 21
279887.21268801036
  0
LINE
  8
_0-0_
  6
CONTINUOUS
 62
    4
 10
392647.57381975063
 20
279887.21268801036
 11
392647.13634038501
 21
279887.32991025306
  0
LINE
  8
_0-0_
  6
CONTINUOUS
 62
    4
 10
392647.13634038501
 20
279887.32991025306
 11
392646.68515188509
 21
279887.36938413192
  0
LINE
  8
_0-0_
  6
CONTINUOUS
 62
    4
 10
392646.68515188509
 20
279887.36938413192
 11
392646.23396338517
 21
279887.32991025306
  0
LINE
  8
_0-0_
  6
CONTINUOUS
 62
    4
 10
392646.23396338517
 20
279887.32991025306
 11
392645.79648401955
 21
279887.21268801036
  0
LINE
  8
_0-0_
  6
CONTINUOUS
 62
    4
 10
392645.79648401955
 20
279887.21268801036
 11
392645.38600637729
 21
279887.0212791423
  0
LINE
  8
_0-0_
  6
CONTINUOUS
 62
    4
 10
392645.38600637729
 20
279887.0212791423
 11
392645.01500261389
 21
279886.76149951044
  0
LINE
  8
_0-0_
  6
CONTINUOUS
 62
    4
 10
392645.01500261389
 20
279886.76149951044
 11
392644.69474549097
 21
279886.44124238752
  0
LINE
  8
_0-0_
  6
CONTINUOUS
 62
    4
 10
392644.69474549097
 20
279886.44124238752
 11
392644.43496585911
 21
279886.07023862412
  0
LINE
  8
_0-0_
  6
CONTINUOUS
 62
    4
 10
392644.43496585911
 20
279886.07023862412
 11
392644.24355699104
 21
279885.65976098186
  0
LINE
  8
_0-0_
  6
CONTINUOUS
 62
    4
 10
392644.24355699104
 20
279885.65976098186
 11
392644.12633474835
 21
279885.22228161624
  0
LINE
  8
_0-0_
  6
CONTINUOUS
 62
    4
 10
392644.12633474835
 20
279885.22228161624
 11
392644.08686086949
 21
279884.77109311632
  0
LINE
  8
_0-0_
  6
CONTINUOUS
 62
    4
 10
392644.08686086949
 20
279884.77109311632
 11
392644.12633474835
 21
279884.31990461639
  0
LINE
  8
_0-0_
  6
CONTINUOUS
 62
    4
 10
392644.12633474835
 20
279884.31990461639
 11
392644.24355699104
 21
279883.88242525078
  0
LINE
  8
_0-0_
  6
CONTINUOUS
 62
    4
 10
392644.24355699104
 20
279883.88242525078
 11
392644.43496585911
 21
279883.47194760852
  0
LINE
  8
_0-0_
  6
CONTINUOUS
 62
    4
 10
392644.43496585911
 20
279883.47194760852
 11
392644.69474549097
 21
279883.10094384511
  0
LINE
  8
_0-0_
  6
CONTINUOUS
 62
    4
 10
392644.69474549097
 20
279883.10094384511
 11
392645.01500261389
 21
279882.7806867222
  0
LINE
  8
_0-0_
  6
CONTINUOUS
 62
    4
 10
392645.01500261389
 20
279882.7806867222
 11
392645.38600637729
 21
279882.52090709034
  0
LINE
  8
_0-0_
  6
CONTINUOUS
 62
    4
 10
392645.38600637729
 20
279882.52090709034
 11
392645.79648401955
 21
279882.32949822227
  0
LINE
  8
_0-0_
  6
CONTINUOUS
 62
    4
 10
392645.79648401955
 20
279882.32949822227
 11
392646.23396338517
 21
279882.21227597957
  0
LINE
  8
_0-0_
  6
CONTINUOUS
 62
    4
 10
392646.23396338517
 20
279882.21227597957
 11
392646.68515188509
 21
279882.17280210071
  0
LINE
  8
_0-0_
  6
CONTINUOUS
 62
    4
 10
392646.68515188509
 20
279882.17280210071
 11
392647.13634038501
 21
279882.21227597957
  0
LINE
  8
_0-0_
  6
CONTINUOUS
 62
    4
 10
392647.13634038501
 20
279882.21227597957
 11
392647.57381975063
 21
279882.32949822227
  0
LINE
  8
_0-0_
  6
CONTINUOUS
 62
    4
 10
392647.57381975063
 20
279882.32949822227
 11
392647.98429739289
 21
279882.52090709034
  0
LINE
  8
_0-0_
  6
CONTINUOUS
 62
    4
 10
392647.98429739289
 20
279882.52090709034
 11
392648.35530115629
 21
279882.7806867222
  0
LINE
  8
_0-0_
  6
CONTINUOUS
 62
    4
 10
392648.35530115629
 20
279882.7806867222
 11
392648.67555827921
 21
279883.10094384511
  0
LINE
  8
_0-0_
  6
CONTINUOUS
 62
    4
 10
392648.67555827921
 20
279883.10094384511
 11
392648.93533791107
 21
279883.47194760852
  0
LINE
  8
_0-0_
  6
CONTINUOUS
 62
    4
 10
392648.93533791107
 20
279883.47194760852
 11
392649.12674677913
 21
279883.88242525078
  0
LINE
  8
_0-0_
  6
CONTINUOUS
 62
    4
 10
392649.12674677913
 20
279883.88242525078
 11
392649.24396902183
 21
279884.31990461639
  0
LINE
  8
_0-0_
  6
CONTINUOUS
 62
    4
 10
392649.24396902183
 20
279884.31990461639
 11
392649.28344290069
 21
279884.77109311632
  0
LINE
  8
_0-0_
  6
CONTINUOUS
 62
    4
 10
392649.28344290069
 20
279884.77109311632
 11
392649.28344290069
 21
279884.77109311632
  0
LINE
  8
_0-0_
  6
CONTINUOUS
 62
    4
 10
392599.28344290069
 20
279884.77109311632
 11
392599.28344290069
 21
279884.77109311632
  0
LINE
  8
_0-0_
  6
CONTINUOUS
 62
    4
 10
392599.28344290069
 20
279884.77109311632
 11
392599.24396902183
 21
279885.22228161624
  0
LINE
  8
_0-0_
  6
CONTINUOUS
 62
    4
 10
392599.24396902183
 20
279885.22228161624
 11
392599.12674677913
 21
279885.65976098186
  0
LINE
  8
_0-0_
  6
CONTINUOUS
 62
    4
 10
392599.12674677913
 20
279885.65976098186
 11
392598.93533791107
 21
279886.07023862412
  0
LINE
  8
_0-0_
  6
CONTINUOUS
 62
    4
 10
392598.93533791107
 20
279886.07023862412
 11
392598.67555827921
 21
279886.44124238752
  0
LINE
  8
_0-0_
  6
CONTINUOUS
 62
    4
 10
392598.67555827921
 20
279886.44124238752
 11
392598.35530115629
 21
279886.76149951044
  0
LINE
  8
_0-0_
  6
CONTINUOUS
 62
    4
 10
392598.35530115629
 20
279886.76149951044
 11
392597.98429739289
 21
279887.0212791423
  0
LINE
  8
_0-0_
  6
CONTINUOUS
 62
    4
 10
392597.98429739289
 20
279887.0212791423
 11
392597.57381975063
 21
279887.21268801036
  0
LINE
  8
_0-0_
  6
CONTINUOUS
 62
    4
 10
392597.57381975063
 20
279887.21268801036
 11
392597.13634038501
 21
279887.32991025306
  0
LINE
  8
_0-0_
  6
CONTINUOUS
 62
    4
 10
392597.13634038501
 20
279887.32991025306
 11
392596.68515188509
 21
279887.36938413192
  0
LINE
  8
_0-0_
  6
CONTINUOUS
 62
    4
 10
392596.68515188509
 20
279887.36938413192
 11
392596.23396338517
 21
279887.32991025306
  0
LINE
  8
_0-0_
  6
CONTINUOUS
 62
    4
 10
392596.23396338517
 20
279887.32991025306
 11
392595.79648401955
 21
279887.21268801036
  0
LINE
  8
_0-0_
  6
CONTINUOUS
 62
    4
 10
392595.79648401955
 20
279887.21268801036
 11
392595.38600637729
 21
279887.0212791423
  0
LINE
  8
_0-0_
  6
CONTINUOUS
 62
    4
 10
392595.38600637729
 20
279887.0212791423
 11
392595.01500261389
 21
279886.76149951044
  0
LINE
  8
_0-0_
  6
CONTINUOUS
 62
    4
 10
392595.01500261389
 20
279886.76149951044
 11
392594.69474549097
 21
279886.44124238752
  0
LINE
  8
_0-0_
  6
CONTINUOUS
 62
    4
 10
392594.69474549097
 20
279886.44124238752
 11
392594.43496585911
 21
279886.07023862412
  0
LINE
  8
_0-0_
  6
CONTINUOUS
 62
    4
 10
392594.43496585911
 20
279886.07023862412
 11
392594.24355699104
 21
279885.65976098186
  0
LINE
  8
_0-0_
  6
CONTINUOUS
 62
    4
 10
392594.24355699104
 20
279885.65976098186
 11
392594.12633474835
 21
279885.22228161624
  0
LINE
  8
_0-0_
  6
CONTINUOUS
 62
    4
 10
392594.12633474835
 20
279885.22228161624
 11
392594.08686086949
 21
279884.77109311632
  0
LINE
  8
_0-0_
  6
CONTINUOUS
 62
    4
 10
392594.08686086949
 20
279884.77109311632
 11
392594.12633474835
 21
279884.31990461639
  0
LINE
  8
_0-0_
  6
CONTINUOUS
 62
    4
 10
392594.12633474835
 20
279884.31990461639
 11
392594.24355699104
 21
279883.88242525078
  0
LINE
  8
_0-0_
  6
CONTINUOUS
 62
    4
 10
392594.24355699104
 20
279883.88242525078
 11
392594.43496585911
 21
279883.47194760852
  0
LINE
  8
_0-0_
  6
CONTINUOUS
 62
    4
 10
392594.43496585911
 20
279883.47194760852
 11
392594.69474549097
 21
279883.10094384511
  0
LINE
  8
_0-0_
  6
CONTINUOUS
 62
    4
 10
392594.69474549097
 20
279883.10094384511
 11
392595.01500261389
 21
279882.7806867222
  0
LINE
  8
_0-0_
  6
CONTINUOUS
 62
    4
 10
392595.01500261389
 20
279882.7806867222
 11
392595.38600637729
 21
279882.52090709034
  0
LINE
  8
_0-0_
  6
CONTINUOUS
 62
    4
 10
392595.38600637729
 20
279882.52090709034
 11
392595.79648401955
 21
279882.32949822227
  0
LINE
  8
_0-0_
  6
CONTINUOUS
 62
    4
 10
392595.79648401955
 20
279882.32949822227
 11
392596.23396338517
 21
279882.21227597957
  0
LINE
  8
_0-0_
  6
CONTINUOUS
 62
    4
 10
392596.23396338517
 20
279882.21227597957
 11
392596.68515188509
 21
279882.17280210071
  0
LINE
  8
_0-0_
  6
CONTINUOUS
 62
    4
 10
392596.68515188509
 20
279882.17280210071
 11
392597.13634038501
 21
279882.21227597957
  0
LINE
  8
_0-0_
  6
CONTINUOUS
 62
    4
 10
392597.13634038501
 20
279882.21227597957
 11
392597.57381975063
 21
279882.32949822227
  0
LINE
  8
_0-0_
  6
CONTINUOUS
 62
    4
 10
392597.57381975063
 20
279882.32949822227
 11
392597.98429739289
 21
279882.52090709034
  0
LINE
  8
_0-0_
  6
CONTINUOUS
 62
    4
 10
392597.98429739289
 20
279882.52090709034
 11
392598.35530115629
 21
279882.7806867222
  0
LINE
  8
_0-0_
  6
CONTINUOUS
 62
    4
 10
392598.35530115629
 20
279882.7806867222
 11
392598.67555827921
 21
279883.10094384511
  0
LINE
  8
_0-0_
  6
CONTINUOUS
 62
    4
 10
392598.67555827921
 20
279883.10094384511
 11
392598.93533791107
 21
279883.47194760852
  0
LINE
  8
_0-0_
  6
CONTINUOUS
 62
    4
 10
392598.93533791107
 20
279883.47194760852
 11
392599.12674677913
 21
279883.88242525078
  0
LINE
  8
_0-0_
  6
CONTINUOUS
 62
    4
 10
392599.12674677913
 20
279883.88242525078
 11
392599.24396902183
 21
279884.31990461639
  0
LINE
  8
_0-0_
  6
CONTINUOUS
 62
    4
 10
392599.24396902183
 20
279884.31990461639
 11
392599.28344290069
 21
279884.77109311632
  0
LINE
  8
_0-0_
  6
CONTINUOUS
 62
    4
 10
392599.28344290069
 20
279884.77109311632
 11
392599.28344290069
 21
279884.77109311632
  0
TEXT
  8
_0-0_
 62
    7
 10
392604.15650605178
 20
279885.77109311632
 40
35.842222222222226
 41
0.9781003937007872
 50
0
  1
50
  0
TEXT
  8
_0-0_
 62
    7
 10
392028.31824440416
 20
281030.34061084635
 40
43.010666666666651
 41
0.9113829463872165
 50
0
  1
TILE 450×900×50
  0
ENDSEC
  0
EOF
