  0
SECTION
  2
HEADER
  9
$ACADVER
  1
AC1009
  9
$INSBASE
 10
0
 20
0
 30
0
  9
$EXTMIN
 10
0
 20
0
  9
$EXTMAX
 10
800000
 20
565856
  9
$LIMMIN
 10
0
 20
0
  9
$LIMMAX
 10
800000
 20
565856
  9
$LTSCALE
 40
8
  0
ENDSEC
  0
SECTION
  2
TABLES
  0
TABLE
  2
LTYPE
 70
     9
  0
LTYPE
  2
CONTINUOUS
 70
    64
  3
実線
 72
    65
 73
     0
 40
0.0
  0
LTYPE
  2
DASHED1
 70
    64
  3
--  --  --  --  --  --  --  --  
 72
    65
 73
     2
 40
2.5
 49
1.25
 49
-1.25
  0
LTYPE
  2
DASHED2
 70
    64
  3
----    ----    ----    ----    
 72
    65
 73
     2
 40
5.0
 49
2.5
 49
-2.5
  0
LTYPE
  2
DASHED3
 70
    64
  3
------  ------  ------  ------  
 72
    65
 73
     2
 40
5.0
 49
3.75
 49
-1.25
  0
LTYPE
  2
CENTER1
 70
    64
  3
----- - ----- - ----- - ----- - 
 72
    65
 73
     4
 40
10.0
 49
6.25
 49
-1.25
 49
1.25
 49
-1.25
  0
LTYPE
  2
CENTER2
 70
    64
  3
----------  --  ----------  --  
 72
    65
 73
     4
 40
20.0
 49
12.5
 49
-2.5
 49
2.5
 49
-2.5
  0
LTYPE
  2
PHANTOM1
 70
    64
  3
--- - - --- - - --- - - --- - - 
 72
    65
 73
     6
 40
10.0
 49
3.25
 49
-1.25
 49
1.25
 49
-1.25
 49
1.25
 49
-1.25
  0
LTYPE
  2
PHANTOM2
 70
    64
  3
--------  -  -  --------  -  -  
 72
    65
 73
     6
 40
20.0
 49
10.0
 49
-2.5
 49
1.25
 49
-2.5
 49
1.25
 49
-2.5
  0
LTYPE
  2
DOT
 70
    64
  3
-   -   -   -   -   -   -   -   
 72
    65
 73
     2
 40
2.5
 49
0.625
 49
-1.875
  0
LTYPE
  2
DUMMY
 70
    64
  3
ダミー
 72
    65
 73
     0
 40
0.0
  0
LTYPE
  2
RAND1
 70
    64
  3
ランダム線1
 72
    65
 73
     4
 40
10.0
 49
1.0
 49
-2.0
 49
3.0
 49
-4.0
  0
LTYPE
  2
RAND2
 70
    64
  3
ランダム線2
 72
    65
 73
     4
 40
14.0
 49
2.0
 49
-3.0
 49
4.0
 49
-5.0
  0
LTYPE
  2
RAND3
 70
    64
  3
ランダム線3
 72
    65
 73
     4
 40
18.0
 49
3.0
 49
-4.0
 49
5.0
 49
-6.0
  0
LTYPE
  2
RAND4
 70
    64
  3
ランダム線4
 72
    65
 73
     4
 40
22.0
 49
4.0
 49
-5.0
 49
6.0
 49
-7.0
  0
LTYPE
  2
RAND5
 70
    64
  3
ランダム線5
 72
    65
 73
     4
 40
26.0
 49
5.0
 49
-6.0
 49
7.0
 49
-8.0
  0
LTYPE
  2
LONG1
 70
    64
  3
----------  --  ----------  --  
 72
    65
 73
     4
 40
40.0
 49
32.5
 49
-2.5
 49
2.5
 49
-2.5
  0
LTYPE
  2
LONG2
 70
    64
  3
--------  -  -  --------  -  -  
 72
    65
 73
     6
 40
40.0
 49
30.0
 49
-2.5
 49
1.25
 49
-2.5
 49
1.25
 49
-2.5
  0
LTYPE
  2
LONG3
 70
    64
  3
+++++++++++++++..+++++++++++++++
 72
    65
 73
     2
 40
40.0
 49
37.5
 49
-2.5
  0
LTYPE
  2
LONG4
 70
    64
  3
+++++++++++++++..+++++++++++++++
 72
    65
 73
     2
 40
80.0
 49
75.0
 49
-5.0
  0
LTYPE
  2
LONG5
 70
    64
  3
----------  --  ----------  --  
 72
    65
 73
     4
 40
60.0
 49
37.5
 49
-7.5
 49
7.5
 49
-7.5
  0
LTYPE
  2
dashed
 70
   64
  3
-------   -------------   ------
 72
   65
 73
    2
 40
7.5
 49
6
 49
-1.5
  0
LTYPE
  2
dashed_spaced
 70
   64
  3
----        --------        ----
 72
   65
 73
    2
 40
12
 49
6
 49
-6
  0
LTYPE
  2
long_dashed_dotted
 70
   64
  3
------------- --- --------------
 72
   65
 73
    4
 40
15.25
 49
12
 49
-1.5
 49
0.25
 49
-1.5
  0
LTYPE
  2
long_dashed_double-dotted
 70
   64
  3
----------- --- --- ------------
 72
   65
 73
    6
 40
17
 49
12
 49
-1.5
 49
0.25
 49
-1.5
 49
0.25
 49
-1.5
  0
LTYPE
  2
long_dashed_triplicate-dotted
 70
   64
  3
--------- --- --- --- ----------
 72
   65
 73
    8
 40
18.75
 49
12
 49
-1.5
 49
0.25
 49
-1.5
 49
0.25
 49
-1.5
 49
0.25
 49
-1.5
  0
LTYPE
  2
dotted
 70
   64
  3
   -       -       -       -    
 72
   65
 73
    2
 40
1.75
 49
0.25
 49
-1.5
  0
LTYPE
  2
chain
 70
   64
  3
-------------- -- --------------
 72
   65
 73
    4
 40
18.5
 49
12
 49
-1.5
 49
3.5
 49
-1.5
  0
LTYPE
  2
chain_double_dash
 70
   64
  3
------------ -- -- -------------
 72
   65
 73
    6
 40
23.5
 49
12
 49
-1.5
 49
3.5
 49
-1.5
 49
3.5
 49
-1.5
  0
LTYPE
  2
dashed_dotted
 70
   64
  3
-----------     -     ----------
 72
   65
 73
    4
 40
9.25
 49
6
 49
-1.5
 49
0.25
 49
-1.5
  0
LTYPE
  2
double-dashed_dotted
 70
   64
  3
------   -----------   -   -----
 72
   65
 73
    6
 40
16.75
 49
6
 49
-1.5
 49
6
 49
-1.5
 49
0.25
 49
-1.5
  0
LTYPE
  2
dashed_double-dotted
 70
   64
  3
---------    -    -    ---------
 72
   65
 73
    6
 40
11
 49
6
 49
-1.5
 49
0.25
 49
-1.5
 49
0.25
 49
-1.5
  0
LTYPE
  2
double-dashed_double-dotted
 70
   64
  3
-----   ---------   -   -   ----
 72
   65
 73
    8
 40
18.5
 49
6
 49
-1.5
 49
6
 49
-1.5
 49
0.25
 49
-1.5
 49
0.25
 49
-1.5
  0
LTYPE
  2
dashed_triplicate-dotted
 70
   64
  3
-------    -    -    -    ------
 72
   65
 73
    8
 40
12.75
 49
6
 49
-1.5
 49
0.25
 49
-1.5
 49
0.25
 49
-1.5
 49
0.25
 49
-1.5
  0
LTYPE
  2
double-dashed_triplicate-dotted
 70
   64
  3
-----  ---------  -  -  -  -----
 72
   65
 73
   10
 40
20.25
 49
6
 49
-1.5
 49
6
 49
-1.5
 49
0.25
 49
-1.5
 49
0.25
 49
-1.5
 49
0.25
 49
-1.5
  0
LTYPE
  2
undefined
 70
   64
  3
--------------------------------
 72
   65
 73
    0
 40
0
  0
LTYPE
  2
_
 70
   64
  3
                                
 72
   65
 73
    0
 40
0
  0
LTYPE
  2
__18
 70
   64
  3
                                
 72
   65
 73
    0
 40
0
  0
LTYPE
  2
__19
 70
   64
  3
                                
 72
   65
 73
    0
 40
0
  0
LTYPE
  2
__20
 70
   64
  3
                                
 72
   65
 73
    0
 40
0
  0
LTYPE
  2
__21
 70
   64
  3
                                
 72
   65
 73
    0
 40
0
  0
LTYPE
  2
__22
 70
   64
  3
                                
 72
   65
 73
    0
 40
0
  0
LTYPE
  2
__23
 70
   64
  3
                                
 72
   65
 73
    0
 40
0
  0
LTYPE
  2
__24
 70
   64
  3
                                
 72
   65
 73
    0
 40
0
  0
LTYPE
  2
__25
 70
   64
  3
                                
 72
   65
 73
    0
 40
0
  0
LTYPE
  2
__26
 70
   64
  3
                                
 72
   65
 73
    0
 40
0
  0
LTYPE
  2
__27
 70
   64
  3
                                
 72
   65
 73
    0
 40
0
  0
LTYPE
  2
__28
 70
   64
  3
                                
 72
   65
 73
    0
 40
0
  0
LTYPE
  2
__29
 70
   64
  3
                                
 72
   65
 73
    0
 40
0
  0
LTYPE
  2
__30
 70
   64
  3
                                
 72
   65
 73
    0
 40
0
  0
LTYPE
  2
__31
 70
   64
  3
                                
 72
   65
 73
    0
 40
0
  0
LTYPE
  2
__32
 70
   64
  3
                                
 72
   65
 73
    0
 40
0
  0
ENDTAB
  0
TABLE
  2
STYLE
  5
3
100
AcDbSymbolTable
 70
     1
  0
STYLE
  5
10
100
AcDbSymbolTableRecord
100
AcDbTextStyleTableRecord
  2
STANDARD
 70
     0
 40
0.0
 41
1.0
 50
0.0
 71
     0
 42
0.2
  3
txt
  4
bigfont.shx
  0
STYLE
  5
26
100
AcDbSymbolTableRecord
100
AcDbTextStyleTableRecord
  2
TATEGAKI
 70
    68
 40
0.0
 41
1.0
 50
0.0
 71
     0
 42
1.0
  3
txt
  4
bigfont.shx
  0
ENDTAB
  0
TABLE
  2
LAYER
 70
    2
  0
LAYER
  2
_0-0_
 70
   64
 62
    7
  6
CONTINUOUS
  0
LAYER
  2
ADD_LINE
 70
   64
 62
    7
  6
CONTINUOUS
  0
ENDTAB
  0
ENDSEC
  0
SECTION
  2
BLOCKS
  0
ENDSEC
  0
SECTION
  2
ENTITIES
  0
LINE
  8
_0-0_
  6
CONTINUOUS
 62
    4
 10
390946.68515188509
 20
279984.77109311632
 11
391396.68515188509
 21
279984.77109311632
  0
LINE
  8
_0-0_
  6
CONTINUOUS
 62
    4
 10
390946.68515188509
 20
279984.77109311632
 11
390946.68515188509
 21
280884.77109311632
  0
LINE
  8
_0-0_
  6
CONTINUOUS
 62
    4
 10
391396.68515188509
 20
279984.77109311632
 11
391396.68515188509
 21
280884.77109311632
  0
LINE
  8
_0-0_
  6
CONTINUOUS
 62
    4
 10
390946.68515188509
 20
280884.77109311632
 11
391396.68515188509
 21
280884.77109311632
  0
LINE
  8
_0-0_
  6
CONTINUOUS
 62
    4
 10
391396.68515188509
 20
280939.34709049453
 11
391396.68515188509
 21
280959.34709049453
  0
LINE
  8
_0-0_
  6
CONTINUOUS
 62
    4
 10
391396.68515188509
 20
280939.34709049453
 11
390946.68515188509
 21
280939.34709049453
  0
LINE
  8
_0-0_
  6
CONTINUOUS
 62
    4
 10
391396.68515188509
 20
280959.34709049453
 11
390946.68515188509
 21
280959.34709049453
  0
LINE
  8
_0-0_
  6
CONTINUOUS
 62
    4
 10
390946.68515188509
 20
280939.34709049453
 11
390946.68515188509
 21
280959.34709049453
  0
LINE
  8
_0-0_
  6
CONTINUOUS
 62
    4
 10
391573.45550988684
 20
279984.77109311632
 11
391593.45550988684
 21
279984.77109311632
  0
LINE
  8
_0-0_
  6
CONTINUOUS
 62
    4
 10
391573.45550988684
 20
279984.77109311632
 11
391573.45550988684
 21
280884.77109311632
  0
LINE
  8
_0-0_
  6
CONTINUOUS
 62
    4
 10
391593.45550988684
 20
279984.77109311632
 11
391593.45550988684
 21
280884.77109311632
  0
LINE
  8
_0-0_
  6
CONTINUOUS
 62
    4
 10
391573.45550988684
 20
280884.77109311632
 11
391593.45550988684
 21
280884.77109311632
  0
LINE
  8
_0-0_
  6
CONTINUOUS
 62
    4
 10
390946.68515188509
 20
279934.77109311632
 11
390946.68515188509
 21
279884.77109311632
  0
LINE
  8
_0-0_
  6
CONTINUOUS
 62
    4
 10
391396.68515188509
 20
279934.77109311632
 11
391396.68515188509
 21
279884.77109311632
  0
LINE
  8
_0-0_
  6
CONTINUOUS
 62
    4
 10
390946.68515188509
 20
279884.77109311632
 11
391396.68515188509
 21
279884.77109311632
  0
LINE
  8
_0-0_
  6
CONTINUOUS
 62
    4
 10
390949.28344290069
 20
279884.77109311632
 11
390949.28344290069
 21
279884.77109311632
  0
LINE
  8
_0-0_
  6
CONTINUOUS
 62
    4
 10
390949.28344290069
 20
279884.77109311632
 11
390949.24396902183
 21
279885.22228161624
  0
LINE
  8
_0-0_
  6
CONTINUOUS
 62
    4
 10
390949.24396902183
 20
279885.22228161624
 11
390949.12674677913
 21
279885.65976098186
  0
LINE
  8
_0-0_
  6
CONTINUOUS
 62
    4
 10
390949.12674677913
 20
279885.65976098186
 11
390948.93533791107
 21
279886.07023862412
  0
LINE
  8
_0-0_
  6
CONTINUOUS
 62
    4
 10
390948.93533791107
 20
279886.07023862412
 11
390948.67555827921
 21
279886.44124238752
  0
LINE
  8
_0-0_
  6
CONTINUOUS
 62
    4
 10
390948.67555827921
 20
279886.44124238752
 11
390948.35530115629
 21
279886.76149951044
  0
LINE
  8
_0-0_
  6
CONTINUOUS
 62
    4
 10
390948.35530115629
 20
279886.76149951044
 11
390947.98429739289
 21
279887.0212791423
  0
LINE
  8
_0-0_
  6
CONTINUOUS
 62
    4
 10
390947.98429739289
 20
279887.0212791423
 11
390947.57381975063
 21
279887.21268801036
  0
LINE
  8
_0-0_
  6
CONTINUOUS
 62
    4
 10
390947.57381975063
 20
279887.21268801036
 11
390947.13634038501
 21
279887.32991025306
  0
LINE
  8
_0-0_
  6
CONTINUOUS
 62
    4
 10
390947.13634038501
 20
279887.32991025306
 11
390946.68515188509
 21
279887.36938413192
  0
LINE
  8
_0-0_
  6
CONTINUOUS
 62
    4
 10
390946.68515188509
 20
279887.36938413192
 11
390946.23396338517
 21
279887.32991025306
  0
LINE
  8
_0-0_
  6
CONTINUOUS
 62
    4
 10
390946.23396338517
 20
279887.32991025306
 11
390945.79648401955
 21
279887.21268801036
  0
LINE
  8
_0-0_
  6
CONTINUOUS
 62
    4
 10
390945.79648401955
 20
279887.21268801036
 11
390945.38600637729
 21
279887.0212791423
  0
LINE
  8
_0-0_
  6
CONTINUOUS
 62
    4
 10
390945.38600637729
 20
279887.0212791423
 11
390945.01500261389
 21
279886.76149951044
  0
LINE
  8
_0-0_
  6
CONTINUOUS
 62
    4
 10
390945.01500261389
 20
279886.76149951044
 11
390944.69474549097
 21
279886.44124238752
  0
LINE
  8
_0-0_
  6
CONTINUOUS
 62
    4
 10
390944.69474549097
 20
279886.44124238752
 11
390944.43496585911
 21
279886.07023862412
  0
LINE
  8
_0-0_
  6
CONTINUOUS
 62
    4
 10
390944.43496585911
 20
279886.07023862412
 11
390944.24355699104
 21
279885.65976098186
  0
LINE
  8
_0-0_
  6
CONTINUOUS
 62
    4
 10
390944.24355699104
 20
279885.65976098186
 11
390944.12633474835
 21
279885.22228161624
  0
LINE
  8
_0-0_
  6
CONTINUOUS
 62
    4
 10
390944.12633474835
 20
279885.22228161624
 11
390944.08686086949
 21
279884.77109311632
  0
LINE
  8
_0-0_
  6
CONTINUOUS
 62
    4
 10
390944.08686086949
 20
279884.77109311632
 11
390944.12633474835
 21
279884.31990461639
  0
LINE
  8
_0-0_
  6
CONTINUOUS
 62
    4
 10
390944.12633474835
 20
279884.31990461639
 11
390944.24355699104
 21
279883.88242525078
  0
LINE
  8
_0-0_
  6
CONTINUOUS
 62
    4
 10
390944.24355699104
 20
279883.88242525078
 11
390944.43496585911
 21
279883.47194760852
  0
LINE
  8
_0-0_
  6
CONTINUOUS
 62
    4
 10
390944.43496585911
 20
279883.47194760852
 11
390944.69474549097
 21
279883.10094384511
  0
LINE
  8
_0-0_
  6
CONTINUOUS
 62
    4
 10
390944.69474549097
 20
279883.10094384511
 11
390945.01500261389
 21
279882.7806867222
  0
LINE
  8
_0-0_
  6
CONTINUOUS
 62
    4
 10
390945.01500261389
 20
279882.7806867222
 11
390945.38600637729
 21
279882.52090709034
  0
LINE
  8
_0-0_
  6
CONTINUOUS
 62
    4
 10
390945.38600637729
 20
279882.52090709034
 11
390945.79648401955
 21
279882.32949822227
  0
LINE
  8
_0-0_
  6
CONTINUOUS
 62
    4
 10
390945.79648401955
 20
279882.32949822227
 11
390946.23396338517
 21
279882.21227597957
  0
LINE
  8
_0-0_
  6
CONTINUOUS
 62
    4
 10
390946.23396338517
 20
279882.21227597957
 11
390946.68515188509
 21
279882.17280210071
  0
LINE
  8
_0-0_
  6
CONTINUOUS
 62
    4
 10
390946.68515188509
 20
279882.17280210071
 11
390947.13634038501
 21
279882.21227597957
  0
LINE
  8
_0-0_
  6
CONTINUOUS
 62
    4
 10
390947.13634038501
 20
279882.21227597957
 11
390947.57381975063
 21
279882.32949822227
  0
LINE
  8
_0-0_
  6
CONTINUOUS
 62
    4
 10
390947.57381975063
 20
279882.32949822227
 11
390947.98429739289
 21
279882.52090709034
  0
LINE
  8
_0-0_
  6
CONTINUOUS
 62
    4
 10
390947.98429739289
 20
279882.52090709034
 11
390948.35530115629
 21
279882.7806867222
  0
LINE
  8
_0-0_
  6
CONTINUOUS
 62
    4
 10
390948.35530115629
 20
279882.7806867222
 11
390948.67555827921
 21
279883.10094384511
  0
LINE
  8
_0-0_
  6
CONTINUOUS
 62
    4
 10
390948.67555827921
 20
279883.10094384511
 11
390948.93533791107
 21
279883.47194760852
  0
LINE
  8
_0-0_
  6
CONTINUOUS
 62
    4
 10
390948.93533791107
 20
279883.47194760852
 11
390949.12674677913
 21
279883.88242525078
  0
LINE
  8
_0-0_
  6
CONTINUOUS
 62
    4
 10
390949.12674677913
 20
279883.88242525078
 11
390949.24396902183
 21
279884.31990461639
  0
LINE
  8
_0-0_
  6
CONTINUOUS
 62
    4
 10
390949.24396902183
 20
279884.31990461639
 11
390949.28344290069
 21
279884.77109311632
  0
LINE
  8
_0-0_
  6
CONTINUOUS
 62
    4
 10
390949.28344290069
 20
279884.77109311632
 11
390949.28344290069
 21
279884.77109311632
  0
LINE
  8
_0-0_
  6
CONTINUOUS
 62
    4
 10
391399.28344290069
 20
279884.77109311632
 11
391399.28344290069
 21
279884.77109311632
  0
LINE
  8
_0-0_
  6
CONTINUOUS
 62
    4
 10
391399.28344290069
 20
279884.77109311632
 11
391399.24396902183
 21
279885.22228161624
  0
LINE
  8
_0-0_
  6
CONTINUOUS
 62
    4
 10
391399.24396902183
 20
279885.22228161624
 11
391399.12674677913
 21
279885.65976098186
  0
LINE
  8
_0-0_
  6
CONTINUOUS
 62
    4
 10
391399.12674677913
 20
279885.65976098186
 11
391398.93533791107
 21
279886.07023862412
  0
LINE
  8
_0-0_
  6
CONTINUOUS
 62
    4
 10
391398.93533791107
 20
279886.07023862412
 11
391398.67555827921
 21
279886.44124238752
  0
LINE
  8
_0-0_
  6
CONTINUOUS
 62
    4
 10
391398.67555827921
 20
279886.44124238752
 11
391398.35530115629
 21
279886.76149951044
  0
LINE
  8
_0-0_
  6
CONTINUOUS
 62
    4
 10
391398.35530115629
 20
279886.76149951044
 11
391397.98429739289
 21
279887.0212791423
  0
LINE
  8
_0-0_
  6
CONTINUOUS
 62
    4
 10
391397.98429739289
 20
279887.0212791423
 11
391397.57381975063
 21
279887.21268801036
  0
LINE
  8
_0-0_
  6
CONTINUOUS
 62
    4
 10
391397.57381975063
 20
279887.21268801036
 11
391397.13634038501
 21
279887.32991025306
  0
LINE
  8
_0-0_
  6
CONTINUOUS
 62
    4
 10
391397.13634038501
 20
279887.32991025306
 11
391396.68515188509
 21
279887.36938413192
  0
LINE
  8
_0-0_
  6
CONTINUOUS
 62
    4
 10
391396.68515188509
 20
279887.36938413192
 11
391396.23396338517
 21
279887.32991025306
  0
LINE
  8
_0-0_
  6
CONTINUOUS
 62
    4
 10
391396.23396338517
 20
279887.32991025306
 11
391395.79648401955
 21
279887.21268801036
  0
LINE
  8
_0-0_
  6
CONTINUOUS
 62
    4
 10
391395.79648401955
 20
279887.21268801036
 11
391395.38600637729
 21
279887.0212791423
  0
LINE
  8
_0-0_
  6
CONTINUOUS
 62
    4
 10
391395.38600637729
 20
279887.0212791423
 11
391395.01500261389
 21
279886.76149951044
  0
LINE
  8
_0-0_
  6
CONTINUOUS
 62
    4
 10
391395.01500261389
 20
279886.76149951044
 11
391394.69474549097
 21
279886.44124238752
  0
LINE
  8
_0-0_
  6
CONTINUOUS
 62
    4
 10
391394.69474549097
 20
279886.44124238752
 11
391394.43496585911
 21
279886.07023862412
  0
LINE
  8
_0-0_
  6
CONTINUOUS
 62
    4
 10
391394.43496585911
 20
279886.07023862412
 11
391394.24355699104
 21
279885.65976098186
  0
LINE
  8
_0-0_
  6
CONTINUOUS
 62
    4
 10
391394.24355699104
 20
279885.65976098186
 11
391394.12633474835
 21
279885.22228161624
  0
LINE
  8
_0-0_
  6
CONTINUOUS
 62
    4
 10
391394.12633474835
 20
279885.22228161624
 11
391394.08686086949
 21
279884.77109311632
  0
LINE
  8
_0-0_
  6
CONTINUOUS
 62
    4
 10
391394.08686086949
 20
279884.77109311632
 11
391394.12633474835
 21
279884.31990461639
  0
LINE
  8
_0-0_
  6
CONTINUOUS
 62
    4
 10
391394.12633474835
 20
279884.31990461639
 11
391394.24355699104
 21
279883.88242525078
  0
LINE
  8
_0-0_
  6
CONTINUOUS
 62
    4
 10
391394.24355699104
 20
279883.88242525078
 11
391394.43496585911
 21
279883.47194760852
  0
LINE
  8
_0-0_
  6
CONTINUOUS
 62
    4
 10
391394.43496585911
 20
279883.47194760852
 11
391394.69474549097
 21
279883.10094384511
  0
LINE
  8
_0-0_
  6
CONTINUOUS
 62
    4
 10
391394.69474549097
 20
279883.10094384511
 11
391395.01500261389
 21
279882.7806867222
  0
LINE
  8
_0-0_
  6
CONTINUOUS
 62
    4
 10
391395.01500261389
 20
279882.7806867222
 11
391395.38600637729
 21
279882.52090709034
  0
LINE
  8
_0-0_
  6
CONTINUOUS
 62
    4
 10
391395.38600637729
 20
279882.52090709034
 11
391395.79648401955
 21
279882.32949822227
  0
LINE
  8
_0-0_
  6
CONTINUOUS
 62
    4
 10
391395.79648401955
 20
279882.32949822227
 11
391396.23396338517
 21
279882.21227597957
  0
LINE
  8
_0-0_
  6
CONTINUOUS
 62
    4
 10
391396.23396338517
 20
279882.21227597957
 11
391396.68515188509
 21
279882.17280210071
  0
LINE
  8
_0-0_
  6
CONTINUOUS
 62
    4
 10
391396.68515188509
 20
279882.17280210071
 11
391397.13634038501
 21
279882.21227597957
  0
LINE
  8
_0-0_
  6
CONTINUOUS
 62
    4
 10
391397.13634038501
 20
279882.21227597957
 11
391397.57381975063
 21
279882.32949822227
  0
LINE
  8
_0-0_
  6
CONTINUOUS
 62
    4
 10
391397.57381975063
 20
279882.32949822227
 11
391397.98429739289
 21
279882.52090709034
  0
LINE
  8
_0-0_
  6
CONTINUOUS
 62
    4
 10
391397.98429739289
 20
279882.52090709034
 11
391398.35530115629
 21
279882.7806867222
  0
LINE
  8
_0-0_
  6
CONTINUOUS
 62
    4
 10
391398.35530115629
 20
279882.7806867222
 11
391398.67555827921
 21
279883.10094384511
  0
LINE
  8
_0-0_
  6
CONTINUOUS
 62
    4
 10
391398.67555827921
 20
279883.10094384511
 11
391398.93533791107
 21
279883.47194760852
  0
LINE
  8
_0-0_
  6
CONTINUOUS
 62
    4
 10
391398.93533791107
 20
279883.47194760852
 11
391399.12674677913
 21
279883.88242525078
  0
LINE
  8
_0-0_
  6
CONTINUOUS
 62
    4
 10
391399.12674677913
 20
279883.88242525078
 11
391399.24396902183
 21
279884.31990461639
  0
LINE
  8
_0-0_
  6
CONTINUOUS
 62
    4
 10
391399.24396902183
 20
279884.31990461639
 11
391399.28344290069
 21
279884.77109311632
  0
LINE
  8
_0-0_
  6
CONTINUOUS
 62
    4
 10
391399.28344290069
 20
279884.77109311632
 11
391399.28344290069
 21
279884.77109311632
  0
TEXT
  8
_0-0_
 62
    7
 10
391145.39218313509
 20
279885.77109311632
 40
35.842222222222226
 41
0.9781003937007872
 50
0
  1
450
  0
LINE
  8
_0-0_
  6
CONTINUOUS
 62
    4
 10
391446.68515188509
 20
280884.77109311632
 11
391496.68515188509
 21
280884.77109311632
  0
LINE
  8
_0-0_
  6
CONTINUOUS
 62
    4
 10
391446.68515188509
 20
279984.77109311632
 11
391496.68515188509
 21
279984.77109311632
  0
LINE
  8
_0-0_
  6
CONTINUOUS
 62
    4
 10
391496.68515188509
 20
280884.77109311632
 11
391496.68515188509
 21
279984.77109311632
  0
LINE
  8
_0-0_
  6
CONTINUOUS
 62
    4
 10
391499.28344290069
 20
280884.77109311632
 11
391499.28344290069
 21
280884.77109311632
  0
LINE
  8
_0-0_
  6
CONTINUOUS
 62
    4
 10
391499.28344290069
 20
280884.77109311632
 11
391499.24396902183
 21
280885.22228161624
  0
LINE
  8
_0-0_
  6
CONTINUOUS
 62
    4
 10
391499.24396902183
 20
280885.22228161624
 11
391499.12674677913
 21
280885.65976098186
  0
LINE
  8
_0-0_
  6
CONTINUOUS
 62
    4
 10
391499.12674677913
 20
280885.65976098186
 11
391498.93533791107
 21
280886.07023862412
  0
LINE
  8
_0-0_
  6
CONTINUOUS
 62
    4
 10
391498.93533791107
 20
280886.07023862412
 11
391498.67555827921
 21
280886.44124238752
  0
LINE
  8
_0-0_
  6
CONTINUOUS
 62
    4
 10
391498.67555827921
 20
280886.44124238752
 11
391498.35530115629
 21
280886.76149951044
  0
LINE
  8
_0-0_
  6
CONTINUOUS
 62
    4
 10
391498.35530115629
 20
280886.76149951044
 11
391497.98429739289
 21
280887.0212791423
  0
LINE
  8
_0-0_
  6
CONTINUOUS
 62
    4
 10
391497.98429739289
 20
280887.0212791423
 11
391497.57381975063
 21
280887.21268801036
  0
LINE
  8
_0-0_
  6
CONTINUOUS
 62
    4
 10
391497.57381975063
 20
280887.21268801036
 11
391497.13634038501
 21
280887.32991025306
  0
LINE
  8
_0-0_
  6
CONTINUOUS
 62
    4
 10
391497.13634038501
 20
280887.32991025306
 11
391496.68515188509
 21
280887.36938413192
  0
LINE
  8
_0-0_
  6
CONTINUOUS
 62
    4
 10
391496.68515188509
 20
280887.36938413192
 11
391496.23396338517
 21
280887.32991025306
  0
LINE
  8
_0-0_
  6
CONTINUOUS
 62
    4
 10
391496.23396338517
 20
280887.32991025306
 11
391495.79648401955
 21
280887.21268801036
  0
LINE
  8
_0-0_
  6
CONTINUOUS
 62
    4
 10
391495.79648401955
 20
280887.21268801036
 11
391495.38600637729
 21
280887.0212791423
  0
LINE
  8
_0-0_
  6
CONTINUOUS
 62
    4
 10
391495.38600637729
 20
280887.0212791423
 11
391495.01500261389
 21
280886.76149951044
  0
LINE
  8
_0-0_
  6
CONTINUOUS
 62
    4
 10
391495.01500261389
 20
280886.76149951044
 11
391494.69474549097
 21
280886.44124238752
  0
LINE
  8
_0-0_
  6
CONTINUOUS
 62
    4
 10
391494.69474549097
 20
280886.44124238752
 11
391494.43496585911
 21
280886.07023862412
  0
LINE
  8
_0-0_
  6
CONTINUOUS
 62
    4
 10
391494.43496585911
 20
280886.07023862412
 11
391494.24355699104
 21
280885.65976098186
  0
LINE
  8
_0-0_
  6
CONTINUOUS
 62
    4
 10
391494.24355699104
 20
280885.65976098186
 11
391494.12633474835
 21
280885.22228161624
  0
LINE
  8
_0-0_
  6
CONTINUOUS
 62
    4
 10
391494.12633474835
 20
280885.22228161624
 11
391494.08686086949
 21
280884.77109311632
  0
LINE
  8
_0-0_
  6
CONTINUOUS
 62
    4
 10
391494.08686086949
 20
280884.77109311632
 11
391494.12633474835
 21
280884.31990461639
  0
LINE
  8
_0-0_
  6
CONTINUOUS
 62
    4
 10
391494.12633474835
 20
280884.31990461639
 11
391494.24355699104
 21
280883.88242525078
  0
LINE
  8
_0-0_
  6
CONTINUOUS
 62
    4
 10
391494.24355699104
 20
280883.88242525078
 11
391494.43496585911
 21
280883.47194760852
  0
LINE
  8
_0-0_
  6
CONTINUOUS
 62
    4
 10
391494.43496585911
 20
280883.47194760852
 11
391494.69474549097
 21
280883.10094384511
  0
LINE
  8
_0-0_
  6
CONTINUOUS
 62
    4
 10
391494.69474549097
 20
280883.10094384511
 11
391495.01500261389
 21
280882.7806867222
  0
LINE
  8
_0-0_
  6
CONTINUOUS
 62
    4
 10
391495.01500261389
 20
280882.7806867222
 11
391495.38600637729
 21
280882.52090709034
  0
LINE
  8
_0-0_
  6
CONTINUOUS
 62
    4
 10
391495.38600637729
 20
280882.52090709034
 11
391495.79648401955
 21
280882.32949822227
  0
LINE
  8
_0-0_
  6
CONTINUOUS
 62
    4
 10
391495.79648401955
 20
280882.32949822227
 11
391496.23396338517
 21
280882.21227597957
  0
LINE
  8
_0-0_
  6
CONTINUOUS
 62
    4
 10
391496.23396338517
 20
280882.21227597957
 11
391496.68515188509
 21
280882.17280210071
  0
LINE
  8
_0-0_
  6
CONTINUOUS
 62
    4
 10
391496.68515188509
 20
280882.17280210071
 11
391497.13634038501
 21
280882.21227597957
  0
LINE
  8
_0-0_
  6
CONTINUOUS
 62
    4
 10
391497.13634038501
 20
280882.21227597957
 11
391497.57381975063
 21
280882.32949822227
  0
LINE
  8
_0-0_
  6
CONTINUOUS
 62
    4
 10
391497.57381975063
 20
280882.32949822227
 11
391497.98429739289
 21
280882.52090709034
  0
LINE
  8
_0-0_
  6
CONTINUOUS
 62
    4
 10
391497.98429739289
 20
280882.52090709034
 11
391498.35530115629
 21
280882.7806867222
  0
LINE
  8
_0-0_
  6
CONTINUOUS
 62
    4
 10
391498.35530115629
 20
280882.7806867222
 11
391498.67555827921
 21
280883.10094384511
  0
LINE
  8
_0-0_
  6
CONTINUOUS
 62
    4
 10
391498.67555827921
 20
280883.10094384511
 11
391498.93533791107
 21
280883.47194760852
  0
LINE
  8
_0-0_
  6
CONTINUOUS
 62
    4
 10
391498.93533791107
 20
280883.47194760852
 11
391499.12674677913
 21
280883.88242525078
  0
LINE
  8
_0-0_
  6
CONTINUOUS
 62
    4
 10
391499.12674677913
 20
280883.88242525078
 11
391499.24396902183
 21
280884.31990461639
  0
LINE
  8
_0-0_
  6
CONTINUOUS
 62
    4
 10
391499.24396902183
 20
280884.31990461639
 11
391499.28344290069
 21
280884.77109311632
  0
LINE
  8
_0-0_
  6
CONTINUOUS
 62
    4
 10
391499.28344290069
 20
280884.77109311632
 11
391499.28344290069
 21
280884.77109311632
  0
LINE
  8
_0-0_
  6
CONTINUOUS
 62
    4
 10
391499.28344290069
 20
279984.77109311632
 11
391499.28344290069
 21
279984.77109311632
  0
LINE
  8
_0-0_
  6
CONTINUOUS
 62
    4
 10
391499.28344290069
 20
279984.77109311632
 11
391499.24396902183
 21
279985.22228161624
  0
LINE
  8
_0-0_
  6
CONTINUOUS
 62
    4
 10
391499.24396902183
 20
279985.22228161624
 11
391499.12674677913
 21
279985.65976098186
  0
LINE
  8
_0-0_
  6
CONTINUOUS
 62
    4
 10
391499.12674677913
 20
279985.65976098186
 11
391498.93533791107
 21
279986.07023862412
  0
LINE
  8
_0-0_
  6
CONTINUOUS
 62
    4
 10
391498.93533791107
 20
279986.07023862412
 11
391498.67555827921
 21
279986.44124238752
  0
LINE
  8
_0-0_
  6
CONTINUOUS
 62
    4
 10
391498.67555827921
 20
279986.44124238752
 11
391498.35530115629
 21
279986.76149951044
  0
LINE
  8
_0-0_
  6
CONTINUOUS
 62
    4
 10
391498.35530115629
 20
279986.76149951044
 11
391497.98429739289
 21
279987.0212791423
  0
LINE
  8
_0-0_
  6
CONTINUOUS
 62
    4
 10
391497.98429739289
 20
279987.0212791423
 11
391497.57381975063
 21
279987.21268801036
  0
LINE
  8
_0-0_
  6
CONTINUOUS
 62
    4
 10
391497.57381975063
 20
279987.21268801036
 11
391497.13634038501
 21
279987.32991025306
  0
LINE
  8
_0-0_
  6
CONTINUOUS
 62
    4
 10
391497.13634038501
 20
279987.32991025306
 11
391496.68515188509
 21
279987.36938413192
  0
LINE
  8
_0-0_
  6
CONTINUOUS
 62
    4
 10
391496.68515188509
 20
279987.36938413192
 11
391496.23396338517
 21
279987.32991025306
  0
LINE
  8
_0-0_
  6
CONTINUOUS
 62
    4
 10
391496.23396338517
 20
279987.32991025306
 11
391495.79648401955
 21
279987.21268801036
  0
LINE
  8
_0-0_
  6
CONTINUOUS
 62
    4
 10
391495.79648401955
 20
279987.21268801036
 11
391495.38600637729
 21
279987.0212791423
  0
LINE
  8
_0-0_
  6
CONTINUOUS
 62
    4
 10
391495.38600637729
 20
279987.0212791423
 11
391495.01500261389
 21
279986.76149951044
  0
LINE
  8
_0-0_
  6
CONTINUOUS
 62
    4
 10
391495.01500261389
 20
279986.76149951044
 11
391494.69474549097
 21
279986.44124238752
  0
LINE
  8
_0-0_
  6
CONTINUOUS
 62
    4
 10
391494.69474549097
 20
279986.44124238752
 11
391494.43496585911
 21
279986.07023862412
  0
LINE
  8
_0-0_
  6
CONTINUOUS
 62
    4
 10
391494.43496585911
 20
279986.07023862412
 11
391494.24355699104
 21
279985.65976098186
  0
LINE
  8
_0-0_
  6
CONTINUOUS
 62
    4
 10
391494.24355699104
 20
279985.65976098186
 11
391494.12633474835
 21
279985.22228161624
  0
LINE
  8
_0-0_
  6
CONTINUOUS
 62
    4
 10
391494.12633474835
 20
279985.22228161624
 11
391494.08686086949
 21
279984.77109311632
  0
LINE
  8
_0-0_
  6
CONTINUOUS
 62
    4
 10
391494.08686086949
 20
279984.77109311632
 11
391494.12633474835
 21
279984.31990461639
  0
LINE
  8
_0-0_
  6
CONTINUOUS
 62
    4
 10
391494.12633474835
 20
279984.31990461639
 11
391494.24355699104
 21
279983.88242525078
  0
LINE
  8
_0-0_
  6
CONTINUOUS
 62
    4
 10
391494.24355699104
 20
279983.88242525078
 11
391494.43496585911
 21
279983.47194760852
  0
LINE
  8
_0-0_
  6
CONTINUOUS
 62
    4
 10
391494.43496585911
 20
279983.47194760852
 11
391494.69474549097
 21
279983.10094384511
  0
LINE
  8
_0-0_
  6
CONTINUOUS
 62
    4
 10
391494.69474549097
 20
279983.10094384511
 11
391495.01500261389
 21
279982.7806867222
  0
LINE
  8
_0-0_
  6
CONTINUOUS
 62
    4
 10
391495.01500261389
 20
279982.7806867222
 11
391495.38600637729
 21
279982.52090709034
  0
LINE
  8
_0-0_
  6
CONTINUOUS
 62
    4
 10
391495.38600637729
 20
279982.52090709034
 11
391495.79648401955
 21
279982.32949822227
  0
LINE
  8
_0-0_
  6
CONTINUOUS
 62
    4
 10
391495.79648401955
 20
279982.32949822227
 11
391496.23396338517
 21
279982.21227597957
  0
LINE
  8
_0-0_
  6
CONTINUOUS
 62
    4
 10
391496.23396338517
 20
279982.21227597957
 11
391496.68515188509
 21
279982.17280210071
  0
LINE
  8
_0-0_
  6
CONTINUOUS
 62
    4
 10
391496.68515188509
 20
279982.17280210071
 11
391497.13634038501
 21
279982.21227597957
  0
LINE
  8
_0-0_
  6
CONTINUOUS
 62
    4
 10
391497.13634038501
 20
279982.21227597957
 11
391497.57381975063
 21
279982.32949822227
  0
LINE
  8
_0-0_
  6
CONTINUOUS
 62
    4
 10
391497.57381975063
 20
279982.32949822227
 11
391497.98429739289
 21
279982.52090709034
  0
LINE
  8
_0-0_
  6
CONTINUOUS
 62
    4
 10
391497.98429739289
 20
279982.52090709034
 11
391498.35530115629
 21
279982.7806867222
  0
LINE
  8
_0-0_
  6
CONTINUOUS
 62
    4
 10
391498.35530115629
 20
279982.7806867222
 11
391498.67555827921
 21
279983.10094384511
  0
LINE
  8
_0-0_
  6
CONTINUOUS
 62
    4
 10
391498.67555827921
 20
279983.10094384511
 11
391498.93533791107
 21
279983.47194760852
  0
LINE
  8
_0-0_
  6
CONTINUOUS
 62
    4
 10
391498.93533791107
 20
279983.47194760852
 11
391499.12674677913
 21
279983.88242525078
  0
LINE
  8
_0-0_
  6
CONTINUOUS
 62
    4
 10
391499.12674677913
 20
279983.88242525078
 11
391499.24396902183
 21
279984.31990461639
  0
LINE
  8
_0-0_
  6
CONTINUOUS
 62
    4
 10
391499.24396902183
 20
279984.31990461639
 11
391499.28344290069
 21
279984.77109311632
  0
LINE
  8
_0-0_
  6
CONTINUOUS
 62
    4
 10
391499.28344290069
 20
279984.77109311632
 11
391499.28344290069
 21
279984.77109311632
  0
TEXT
  8
_0-0_
 62
    7
 10
391495.68515188509
 20
280408.47812436632
 40
35.842222222222226
 41
0.9781003937007872
 50
90
  1
900
  0
LINE
  8
_0-0_
  6
CONTINUOUS
 62
    4
 10
391446.68515188509
 20
280939.34709049453
 11
391496.68515188509
 21
280939.34709049453
  0
LINE
  8
_0-0_
  6
CONTINUOUS
 62
    4
 10
391446.68515188509
 20
280959.34709049453
 11
391496.68515188509
 21
280959.34709049453
  0
LINE
  8
_0-0_
  6
CONTINUOUS
 62
    4
 10
391496.68515188509
 20
280939.34709049453
 11
391496.68515188509
 21
280959.34709049453
  0
LINE
  8
_0-0_
  6
CONTINUOUS
 62
    4
 10
391499.28344290069
 20
280939.34709049453
 11
391499.28344290069
 21
280939.34709049453
  0
LINE
  8
_0-0_
  6
CONTINUOUS
 62
    4
 10
391499.28344290069
 20
280939.34709049453
 11
391499.24396902183
 21
280939.79827899445
  0
LINE
  8
_0-0_
  6
CONTINUOUS
 62
    4
 10
391499.24396902183
 20
280939.79827899445
 11
391499.12674677913
 21
280940.23575836007
  0
LINE
  8
_0-0_
  6
CONTINUOUS
 62
    4
 10
391499.12674677913
 20
280940.23575836007
 11
391498.93533791107
 21
280940.64623600233
  0
LINE
  8
_0-0_
  6
CONTINUOUS
 62
    4
 10
391498.93533791107
 20
280940.64623600233
 11
391498.67555827921
 21
280941.01723976573
  0
LINE
  8
_0-0_
  6
CONTINUOUS
 62
    4
 10
391498.67555827921
 20
280941.01723976573
 11
391498.35530115629
 21
280941.33749688865
  0
LINE
  8
_0-0_
  6
CONTINUOUS
 62
    4
 10
391498.35530115629
 20
280941.33749688865
 11
391497.98429739289
 21
280941.59727652051
  0
LINE
  8
_0-0_
  6
CONTINUOUS
 62
    4
 10
391497.98429739289
 20
280941.59727652051
 11
391497.57381975063
 21
280941.78868538857
  0
LINE
  8
_0-0_
  6
CONTINUOUS
 62
    4
 10
391497.57381975063
 20
280941.78868538857
 11
391497.13634038501
 21
280941.90590763127
  0
LINE
  8
_0-0_
  6
CONTINUOUS
 62
    4
 10
391497.13634038501
 20
280941.90590763127
 11
391496.68515188509
 21
280941.94538151013
  0
LINE
  8
_0-0_
  6
CONTINUOUS
 62
    4
 10
391496.68515188509
 20
280941.94538151013
 11
391496.23396338517
 21
280941.90590763127
  0
LINE
  8
_0-0_
  6
CONTINUOUS
 62
    4
 10
391496.23396338517
 20
280941.90590763127
 11
391495.79648401955
 21
280941.78868538857
  0
LINE
  8
_0-0_
  6
CONTINUOUS
 62
    4
 10
391495.79648401955
 20
280941.78868538857
 11
391495.38600637729
 21
280941.59727652051
  0
LINE
  8
_0-0_
  6
CONTINUOUS
 62
    4
 10
391495.38600637729
 20
280941.59727652051
 11
391495.01500261389
 21
280941.33749688865
  0
LINE
  8
_0-0_
  6
CONTINUOUS
 62
    4
 10
391495.01500261389
 20
280941.33749688865
 11
391494.69474549097
 21
280941.01723976573
  0
LINE
  8
_0-0_
  6
CONTINUOUS
 62
    4
 10
391494.69474549097
 20
280941.01723976573
 11
391494.43496585911
 21
280940.64623600233
  0
LINE
  8
_0-0_
  6
CONTINUOUS
 62
    4
 10
391494.43496585911
 20
280940.64623600233
 11
391494.24355699104
 21
280940.23575836007
  0
LINE
  8
_0-0_
  6
CONTINUOUS
 62
    4
 10
391494.24355699104
 20
280940.23575836007
 11
391494.12633474835
 21
280939.79827899445
  0
LINE
  8
_0-0_
  6
CONTINUOUS
 62
    4
 10
391494.12633474835
 20
280939.79827899445
 11
391494.08686086949
 21
280939.34709049453
  0
LINE
  8
_0-0_
  6
CONTINUOUS
 62
    4
 10
391494.08686086949
 20
280939.34709049453
 11
391494.12633474835
 21
280938.89590199461
  0
LINE
  8
_0-0_
  6
CONTINUOUS
 62
    4
 10
391494.12633474835
 20
280938.89590199461
 11
391494.24355699104
 21
280938.45842262899
  0
LINE
  8
_0-0_
  6
CONTINUOUS
 62
    4
 10
391494.24355699104
 20
280938.45842262899
 11
391494.43496585911
 21
280938.04794498673
  0
LINE
  8
_0-0_
  6
CONTINUOUS
 62
    4
 10
391494.43496585911
 20
280938.04794498673
 11
391494.69474549097
 21
280937.67694122333
  0
LINE
  8
_0-0_
  6
CONTINUOUS
 62
    4
 10
391494.69474549097
 20
280937.67694122333
 11
391495.01500261389
 21
280937.35668410041
  0
LINE
  8
_0-0_
  6
CONTINUOUS
 62
    4
 10
391495.01500261389
 20
280937.35668410041
 11
391495.38600637729
 21
280937.09690446855
  0
LINE
  8
_0-0_
  6
CONTINUOUS
 62
    4
 10
391495.38600637729
 20
280937.09690446855
 11
391495.79648401955
 21
280936.90549560048
  0
LINE
  8
_0-0_
  6
CONTINUOUS
 62
    4
 10
391495.79648401955
 20
280936.90549560048
 11
391496.23396338517
 21
280936.78827335779
  0
LINE
  8
_0-0_
  6
CONTINUOUS
 62
    4
 10
391496.23396338517
 20
280936.78827335779
 11
391496.68515188509
 21
280936.74879947893
  0
LINE
  8
_0-0_
  6
CONTINUOUS
 62
    4
 10
391496.68515188509
 20
280936.74879947893
 11
391497.13634038501
 21
280936.78827335779
  0
LINE
  8
_0-0_
  6
CONTINUOUS
 62
    4
 10
391497.13634038501
 20
280936.78827335779
 11
391497.57381975063
 21
280936.90549560048
  0
LINE
  8
_0-0_
  6
CONTINUOUS
 62
    4
 10
391497.57381975063
 20
280936.90549560048
 11
391497.98429739289
 21
280937.09690446855
  0
LINE
  8
_0-0_
  6
CONTINUOUS
 62
    4
 10
391497.98429739289
 20
280937.09690446855
 11
391498.35530115629
 21
280937.35668410041
  0
LINE
  8
_0-0_
  6
CONTINUOUS
 62
    4
 10
391498.35530115629
 20
280937.35668410041
 11
391498.67555827921
 21
280937.67694122333
  0
LINE
  8
_0-0_
  6
CONTINUOUS
 62
    4
 10
391498.67555827921
 20
280937.67694122333
 11
391498.93533791107
 21
280938.04794498673
  0
LINE
  8
_0-0_
  6
CONTINUOUS
 62
    4
 10
391498.93533791107
 20
280938.04794498673
 11
391499.12674677913
 21
280938.45842262899
  0
LINE
  8
_0-0_
  6
CONTINUOUS
 62
    4
 10
391499.12674677913
 20
280938.45842262899
 11
391499.24396902183
 21
280938.89590199461
  0
LINE
  8
_0-0_
  6
CONTINUOUS
 62
    4
 10
391499.24396902183
 20
280938.89590199461
 11
391499.28344290069
 21
280939.34709049453
  0
LINE
  8
_0-0_
  6
CONTINUOUS
 62
    4
 10
391499.28344290069
 20
280939.34709049453
 11
391499.28344290069
 21
280939.34709049453
  0
LINE
  8
_0-0_
  6
CONTINUOUS
 62
    4
 10
391499.28344290069
 20
280959.34709049453
 11
391499.28344290069
 21
280959.34709049453
  0
LINE
  8
_0-0_
  6
CONTINUOUS
 62
    4
 10
391499.28344290069
 20
280959.34709049453
 11
391499.24396902183
 21
280959.79827899445
  0
LINE
  8
_0-0_
  6
CONTINUOUS
 62
    4
 10
391499.24396902183
 20
280959.79827899445
 11
391499.12674677913
 21
280960.23575836007
  0
LINE
  8
_0-0_
  6
CONTINUOUS
 62
    4
 10
391499.12674677913
 20
280960.23575836007
 11
391498.93533791107
 21
280960.64623600233
  0
LINE
  8
_0-0_
  6
CONTINUOUS
 62
    4
 10
391498.93533791107
 20
280960.64623600233
 11
391498.67555827921
 21
280961.01723976573
  0
LINE
  8
_0-0_
  6
CONTINUOUS
 62
    4
 10
391498.67555827921
 20
280961.01723976573
 11
391498.35530115629
 21
280961.33749688865
  0
LINE
  8
_0-0_
  6
CONTINUOUS
 62
    4
 10
391498.35530115629
 20
280961.33749688865
 11
391497.98429739289
 21
280961.59727652051
  0
LINE
  8
_0-0_
  6
CONTINUOUS
 62
    4
 10
391497.98429739289
 20
280961.59727652051
 11
391497.57381975063
 21
280961.78868538857
  0
LINE
  8
_0-0_
  6
CONTINUOUS
 62
    4
 10
391497.57381975063
 20
280961.78868538857
 11
391497.13634038501
 21
280961.90590763127
  0
LINE
  8
_0-0_
  6
CONTINUOUS
 62
    4
 10
391497.13634038501
 20
280961.90590763127
 11
391496.68515188509
 21
280961.94538151013
  0
LINE
  8
_0-0_
  6
CONTINUOUS
 62
    4
 10
391496.68515188509
 20
280961.94538151013
 11
391496.23396338517
 21
280961.90590763127
  0
LINE
  8
_0-0_
  6
CONTINUOUS
 62
    4
 10
391496.23396338517
 20
280961.90590763127
 11
391495.79648401955
 21
280961.78868538857
  0
LINE
  8
_0-0_
  6
CONTINUOUS
 62
    4
 10
391495.79648401955
 20
280961.78868538857
 11
391495.38600637729
 21
280961.59727652051
  0
LINE
  8
_0-0_
  6
CONTINUOUS
 62
    4
 10
391495.38600637729
 20
280961.59727652051
 11
391495.01500261389
 21
280961.33749688865
  0
LINE
  8
_0-0_
  6
CONTINUOUS
 62
    4
 10
391495.01500261389
 20
280961.33749688865
 11
391494.69474549097
 21
280961.01723976573
  0
LINE
  8
_0-0_
  6
CONTINUOUS
 62
    4
 10
391494.69474549097
 20
280961.01723976573
 11
391494.43496585911
 21
280960.64623600233
  0
LINE
  8
_0-0_
  6
CONTINUOUS
 62
    4
 10
391494.43496585911
 20
280960.64623600233
 11
391494.24355699104
 21
280960.23575836007
  0
LINE
  8
_0-0_
  6
CONTINUOUS
 62
    4
 10
391494.24355699104
 20
280960.23575836007
 11
391494.12633474835
 21
280959.79827899445
  0
LINE
  8
_0-0_
  6
CONTINUOUS
 62
    4
 10
391494.12633474835
 20
280959.79827899445
 11
391494.08686086949
 21
280959.34709049453
  0
LINE
  8
_0-0_
  6
CONTINUOUS
 62
    4
 10
391494.08686086949
 20
280959.34709049453
 11
391494.12633474835
 21
280958.89590199461
  0
LINE
  8
_0-0_
  6
CONTINUOUS
 62
    4
 10
391494.12633474835
 20
280958.89590199461
 11
391494.24355699104
 21
280958.45842262899
  0
LINE
  8
_0-0_
  6
CONTINUOUS
 62
    4
 10
391494.24355699104
 20
280958.45842262899
 11
391494.43496585911
 21
280958.04794498673
  0
LINE
  8
_0-0_
  6
CONTINUOUS
 62
    4
 10
391494.43496585911
 20
280958.04794498673
 11
391494.69474549097
 21
280957.67694122333
  0
LINE
  8
_0-0_
  6
CONTINUOUS
 62
    4
 10
391494.69474549097
 20
280957.67694122333
 11
391495.01500261389
 21
280957.35668410041
  0
LINE
  8
_0-0_
  6
CONTINUOUS
 62
    4
 10
391495.01500261389
 20
280957.35668410041
 11
391495.38600637729
 21
280957.09690446855
  0
LINE
  8
_0-0_
  6
CONTINUOUS
 62
    4
 10
391495.38600637729
 20
280957.09690446855
 11
391495.79648401955
 21
280956.90549560048
  0
LINE
  8
_0-0_
  6
CONTINUOUS
 62
    4
 10
391495.79648401955
 20
280956.90549560048
 11
391496.23396338517
 21
280956.78827335779
  0
LINE
  8
_0-0_
  6
CONTINUOUS
 62
    4
 10
391496.23396338517
 20
280956.78827335779
 11
391496.68515188509
 21
280956.74879947893
  0
LINE
  8
_0-0_
  6
CONTINUOUS
 62
    4
 10
391496.68515188509
 20
280956.74879947893
 11
391497.13634038501
 21
280956.78827335779
  0
LINE
  8
_0-0_
  6
CONTINUOUS
 62
    4
 10
391497.13634038501
 20
280956.78827335779
 11
391497.57381975063
 21
280956.90549560048
  0
LINE
  8
_0-0_
  6
CONTINUOUS
 62
    4
 10
391497.57381975063
 20
280956.90549560048
 11
391497.98429739289
 21
280957.09690446855
  0
LINE
  8
_0-0_
  6
CONTINUOUS
 62
    4
 10
391497.98429739289
 20
280957.09690446855
 11
391498.35530115629
 21
280957.35668410041
  0
LINE
  8
_0-0_
  6
CONTINUOUS
 62
    4
 10
391498.35530115629
 20
280957.35668410041
 11
391498.67555827921
 21
280957.67694122333
  0
LINE
  8
_0-0_
  6
CONTINUOUS
 62
    4
 10
391498.67555827921
 20
280957.67694122333
 11
391498.93533791107
 21
280958.04794498673
  0
LINE
  8
_0-0_
  6
CONTINUOUS
 62
    4
 10
391498.93533791107
 20
280958.04794498673
 11
391499.12674677913
 21
280958.45842262899
  0
LINE
  8
_0-0_
  6
CONTINUOUS
 62
    4
 10
391499.12674677913
 20
280958.45842262899
 11
391499.24396902183
 21
280958.89590199461
  0
LINE
  8
_0-0_
  6
CONTINUOUS
 62
    4
 10
391499.24396902183
 20
280958.89590199461
 11
391499.28344290069
 21
280959.34709049453
  0
LINE
  8
_0-0_
  6
CONTINUOUS
 62
    4
 10
391499.28344290069
 20
280959.34709049453
 11
391499.28344290069
 21
280959.34709049453
  0
TEXT
  8
_0-0_
 62
    7
 10
391495.68515188509
 20
280931.81844466121
 40
35.842222222222226
 41
0.9781003937007872
 50
90
  1
20
  0
LINE
  8
_0-0_
  6
CONTINUOUS
 62
    4
 10
391593.45550988684
 20
279934.77109311632
 11
391593.45550988684
 21
279884.77109311632
  0
LINE
  8
_0-0_
  6
CONTINUOUS
 62
    4
 10
391573.45550988684
 20
279934.77109311632
 11
391573.45550988684
 21
279884.77109311632
  0
LINE
  8
_0-0_
  6
CONTINUOUS
 62
    4
 10
391593.45550988684
 20
279884.77109311632
 11
391573.45550988684
 21
279884.77109311632
  0
LINE
  8
_0-0_
  6
CONTINUOUS
 62
    4
 10
391596.05380090245
 20
279884.77109311632
 11
391596.05380090245
 21
279884.77109311632
  0
LINE
  8
_0-0_
  6
CONTINUOUS
 62
    4
 10
391596.05380090245
 20
279884.77109311632
 11
391596.01432702359
 21
279885.22228161624
  0
LINE
  8
_0-0_
  6
CONTINUOUS
 62
    4
 10
391596.01432702359
 20
279885.22228161624
 11
391595.89710478089
 21
279885.65976098186
  0
LINE
  8
_0-0_
  6
CONTINUOUS
 62
    4
 10
391595.89710478089
 20
279885.65976098186
 11
391595.70569591282
 21
279886.07023862412
  0
LINE
  8
_0-0_
  6
CONTINUOUS
 62
    4
 10
391595.70569591282
 20
279886.07023862412
 11
391595.44591628097
 21
279886.44124238752
  0
LINE
  8
_0-0_
  6
CONTINUOUS
 62
    4
 10
391595.44591628097
 20
279886.44124238752
 11
391595.12565915805
 21
279886.76149951044
  0
LINE
  8
_0-0_
  6
CONTINUOUS
 62
    4
 10
391595.12565915805
 20
279886.76149951044
 11
391594.75465539464
 21
279887.0212791423
  0
LINE
  8
_0-0_
  6
CONTINUOUS
 62
    4
 10
391594.75465539464
 20
279887.0212791423
 11
391594.34417775238
 21
279887.21268801036
  0
LINE
  8
_0-0_
  6
CONTINUOUS
 62
    4
 10
391594.34417775238
 20
279887.21268801036
 11
391593.90669838677
 21
279887.32991025306
  0
LINE
  8
_0-0_
  6
CONTINUOUS
 62
    4
 10
391593.90669838677
 20
279887.32991025306
 11
391593.45550988684
 21
279887.36938413192
  0
LINE
  8
_0-0_
  6
CONTINUOUS
 62
    4
 10
391593.45550988684
 20
279887.36938413192
 11
391593.00432138692
 21
279887.32991025306
  0
LINE
  8
_0-0_
  6
CONTINUOUS
 62
    4
 10
391593.00432138692
 20
279887.32991025306
 11
391592.5668420213
 21
279887.21268801036
  0
LINE
  8
_0-0_
  6
CONTINUOUS
 62
    4
 10
391592.5668420213
 20
279887.21268801036
 11
391592.15636437904
 21
279887.0212791423
  0
LINE
  8
_0-0_
  6
CONTINUOUS
 62
    4
 10
391592.15636437904
 20
279887.0212791423
 11
391591.78536061564
 21
279886.76149951044
  0
LINE
  8
_0-0_
  6
CONTINUOUS
 62
    4
 10
391591.78536061564
 20
279886.76149951044
 11
391591.46510349272
 21
279886.44124238752
  0
LINE
  8
_0-0_
  6
CONTINUOUS
 62
    4
 10
391591.46510349272
 20
279886.44124238752
 11
391591.20532386086
 21
279886.07023862412
  0
LINE
  8
_0-0_
  6
CONTINUOUS
 62
    4
 10
391591.20532386086
 20
279886.07023862412
 11
391591.0139149928
 21
279885.65976098186
  0
LINE
  8
_0-0_
  6
CONTINUOUS
 62
    4
 10
391591.0139149928
 20
279885.65976098186
 11
391590.8966927501
 21
279885.22228161624
  0
LINE
  8
_0-0_
  6
CONTINUOUS
 62
    4
 10
391590.8966927501
 20
279885.22228161624
 11
391590.85721887124
 21
279884.77109311632
  0
LINE
  8
_0-0_
  6
CONTINUOUS
 62
    4
 10
391590.85721887124
 20
279884.77109311632
 11
391590.8966927501
 21
279884.31990461639
  0
LINE
  8
_0-0_
  6
CONTINUOUS
 62
    4
 10
391590.8966927501
 20
279884.31990461639
 11
391591.0139149928
 21
279883.88242525078
  0
LINE
  8
_0-0_
  6
CONTINUOUS
 62
    4
 10
391591.0139149928
 20
279883.88242525078
 11
391591.20532386086
 21
279883.47194760852
  0
LINE
  8
_0-0_
  6
CONTINUOUS
 62
    4
 10
391591.20532386086
 20
279883.47194760852
 11
391591.46510349272
 21
279883.10094384511
  0
LINE
  8
_0-0_
  6
CONTINUOUS
 62
    4
 10
391591.46510349272
 20
279883.10094384511
 11
391591.78536061564
 21
279882.7806867222
  0
LINE
  8
_0-0_
  6
CONTINUOUS
 62
    4
 10
391591.78536061564
 20
279882.7806867222
 11
391592.15636437904
 21
279882.52090709034
  0
LINE
  8
_0-0_
  6
CONTINUOUS
 62
    4
 10
391592.15636437904
 20
279882.52090709034
 11
391592.5668420213
 21
279882.32949822227
  0
LINE
  8
_0-0_
  6
CONTINUOUS
 62
    4
 10
391592.5668420213
 20
279882.32949822227
 11
391593.00432138692
 21
279882.21227597957
  0
LINE
  8
_0-0_
  6
CONTINUOUS
 62
    4
 10
391593.00432138692
 20
279882.21227597957
 11
391593.45550988684
 21
279882.17280210071
  0
LINE
  8
_0-0_
  6
CONTINUOUS
 62
    4
 10
391593.45550988684
 20
279882.17280210071
 11
391593.90669838677
 21
279882.21227597957
  0
LINE
  8
_0-0_
  6
CONTINUOUS
 62
    4
 10
391593.90669838677
 20
279882.21227597957
 11
391594.34417775238
 21
279882.32949822227
  0
LINE
  8
_0-0_
  6
CONTINUOUS
 62
    4
 10
391594.34417775238
 20
279882.32949822227
 11
391594.75465539464
 21
279882.52090709034
  0
LINE
  8
_0-0_
  6
CONTINUOUS
 62
    4
 10
391594.75465539464
 20
279882.52090709034
 11
391595.12565915805
 21
279882.7806867222
  0
LINE
  8
_0-0_
  6
CONTINUOUS
 62
    4
 10
391595.12565915805
 20
279882.7806867222
 11
391595.44591628097
 21
279883.10094384511
  0
LINE
  8
_0-0_
  6
CONTINUOUS
 62
    4
 10
391595.44591628097
 20
279883.10094384511
 11
391595.70569591282
 21
279883.47194760852
  0
LINE
  8
_0-0_
  6
CONTINUOUS
 62
    4
 10
391595.70569591282
 20
279883.47194760852
 11
391595.89710478089
 21
279883.88242525078
  0
LINE
  8
_0-0_
  6
CONTINUOUS
 62
    4
 10
391595.89710478089
 20
279883.88242525078
 11
391596.01432702359
 21
279884.31990461639
  0
LINE
  8
_0-0_
  6
CONTINUOUS
 62
    4
 10
391596.01432702359
 20
279884.31990461639
 11
391596.05380090245
 21
279884.77109311632
  0
LINE
  8
_0-0_
  6
CONTINUOUS
 62
    4
 10
391596.05380090245
 20
279884.77109311632
 11
391596.05380090245
 21
279884.77109311632
  0
LINE
  8
_0-0_
  6
CONTINUOUS
 62
    4
 10
391576.05380090245
 20
279884.77109311632
 11
391576.05380090245
 21
279884.77109311632
  0
LINE
  8
_0-0_
  6
CONTINUOUS
 62
    4
 10
391576.05380090245
 20
279884.77109311632
 11
391576.01432702359
 21
279885.22228161624
  0
LINE
  8
_0-0_
  6
CONTINUOUS
 62
    4
 10
391576.01432702359
 20
279885.22228161624
 11
391575.89710478089
 21
279885.65976098186
  0
LINE
  8
_0-0_
  6
CONTINUOUS
 62
    4
 10
391575.89710478089
 20
279885.65976098186
 11
391575.70569591282
 21
279886.07023862412
  0
LINE
  8
_0-0_
  6
CONTINUOUS
 62
    4
 10
391575.70569591282
 20
279886.07023862412
 11
391575.44591628097
 21
279886.44124238752
  0
LINE
  8
_0-0_
  6
CONTINUOUS
 62
    4
 10
391575.44591628097
 20
279886.44124238752
 11
391575.12565915805
 21
279886.76149951044
  0
LINE
  8
_0-0_
  6
CONTINUOUS
 62
    4
 10
391575.12565915805
 20
279886.76149951044
 11
391574.75465539464
 21
279887.0212791423
  0
LINE
  8
_0-0_
  6
CONTINUOUS
 62
    4
 10
391574.75465539464
 20
279887.0212791423
 11
391574.34417775238
 21
279887.21268801036
  0
LINE
  8
_0-0_
  6
CONTINUOUS
 62
    4
 10
391574.34417775238
 20
279887.21268801036
 11
391573.90669838677
 21
279887.32991025306
  0
LINE
  8
_0-0_
  6
CONTINUOUS
 62
    4
 10
391573.90669838677
 20
279887.32991025306
 11
391573.45550988684
 21
279887.36938413192
  0
LINE
  8
_0-0_
  6
CONTINUOUS
 62
    4
 10
391573.45550988684
 20
279887.36938413192
 11
391573.00432138692
 21
279887.32991025306
  0
LINE
  8
_0-0_
  6
CONTINUOUS
 62
    4
 10
391573.00432138692
 20
279887.32991025306
 11
391572.5668420213
 21
279887.21268801036
  0
LINE
  8
_0-0_
  6
CONTINUOUS
 62
    4
 10
391572.5668420213
 20
279887.21268801036
 11
391572.15636437904
 21
279887.0212791423
  0
LINE
  8
_0-0_
  6
CONTINUOUS
 62
    4
 10
391572.15636437904
 20
279887.0212791423
 11
391571.78536061564
 21
279886.76149951044
  0
LINE
  8
_0-0_
  6
CONTINUOUS
 62
    4
 10
391571.78536061564
 20
279886.76149951044
 11
391571.46510349272
 21
279886.44124238752
  0
LINE
  8
_0-0_
  6
CONTINUOUS
 62
    4
 10
391571.46510349272
 20
279886.44124238752
 11
391571.20532386086
 21
279886.07023862412
  0
LINE
  8
_0-0_
  6
CONTINUOUS
 62
    4
 10
391571.20532386086
 20
279886.07023862412
 11
391571.0139149928
 21
279885.65976098186
  0
LINE
  8
_0-0_
  6
CONTINUOUS
 62
    4
 10
391571.0139149928
 20
279885.65976098186
 11
391570.8966927501
 21
279885.22228161624
  0
LINE
  8
_0-0_
  6
CONTINUOUS
 62
    4
 10
391570.8966927501
 20
279885.22228161624
 11
391570.85721887124
 21
279884.77109311632
  0
LINE
  8
_0-0_
  6
CONTINUOUS
 62
    4
 10
391570.85721887124
 20
279884.77109311632
 11
391570.8966927501
 21
279884.31990461639
  0
LINE
  8
_0-0_
  6
CONTINUOUS
 62
    4
 10
391570.8966927501
 20
279884.31990461639
 11
391571.0139149928
 21
279883.88242525078
  0
LINE
  8
_0-0_
  6
CONTINUOUS
 62
    4
 10
391571.0139149928
 20
279883.88242525078
 11
391571.20532386086
 21
279883.47194760852
  0
LINE
  8
_0-0_
  6
CONTINUOUS
 62
    4
 10
391571.20532386086
 20
279883.47194760852
 11
391571.46510349272
 21
279883.10094384511
  0
LINE
  8
_0-0_
  6
CONTINUOUS
 62
    4
 10
391571.46510349272
 20
279883.10094384511
 11
391571.78536061564
 21
279882.7806867222
  0
LINE
  8
_0-0_
  6
CONTINUOUS
 62
    4
 10
391571.78536061564
 20
279882.7806867222
 11
391572.15636437904
 21
279882.52090709034
  0
LINE
  8
_0-0_
  6
CONTINUOUS
 62
    4
 10
391572.15636437904
 20
279882.52090709034
 11
391572.5668420213
 21
279882.32949822227
  0
LINE
  8
_0-0_
  6
CONTINUOUS
 62
    4
 10
391572.5668420213
 20
279882.32949822227
 11
391573.00432138692
 21
279882.21227597957
  0
LINE
  8
_0-0_
  6
CONTINUOUS
 62
    4
 10
391573.00432138692
 20
279882.21227597957
 11
391573.45550988684
 21
279882.17280210071
  0
LINE
  8
_0-0_
  6
CONTINUOUS
 62
    4
 10
391573.45550988684
 20
279882.17280210071
 11
391573.90669838677
 21
279882.21227597957
  0
LINE
  8
_0-0_
  6
CONTINUOUS
 62
    4
 10
391573.90669838677
 20
279882.21227597957
 11
391574.34417775238
 21
279882.32949822227
  0
LINE
  8
_0-0_
  6
CONTINUOUS
 62
    4
 10
391574.34417775238
 20
279882.32949822227
 11
391574.75465539464
 21
279882.52090709034
  0
LINE
  8
_0-0_
  6
CONTINUOUS
 62
    4
 10
391574.75465539464
 20
279882.52090709034
 11
391575.12565915805
 21
279882.7806867222
  0
LINE
  8
_0-0_
  6
CONTINUOUS
 62
    4
 10
391575.12565915805
 20
279882.7806867222
 11
391575.44591628097
 21
279883.10094384511
  0
LINE
  8
_0-0_
  6
CONTINUOUS
 62
    4
 10
391575.44591628097
 20
279883.10094384511
 11
391575.70569591282
 21
279883.47194760852
  0
LINE
  8
_0-0_
  6
CONTINUOUS
 62
    4
 10
391575.70569591282
 20
279883.47194760852
 11
391575.89710478089
 21
279883.88242525078
  0
LINE
  8
_0-0_
  6
CONTINUOUS
 62
    4
 10
391575.89710478089
 20
279883.88242525078
 11
391576.01432702359
 21
279884.31990461639
  0
LINE
  8
_0-0_
  6
CONTINUOUS
 62
    4
 10
391576.01432702359
 20
279884.31990461639
 11
391576.05380090245
 21
279884.77109311632
  0
LINE
  8
_0-0_
  6
CONTINUOUS
 62
    4
 10
391576.05380090245
 20
279884.77109311632
 11
391576.05380090245
 21
279884.77109311632
  0
TEXT
  8
_0-0_
 62
    7
 10
391565.92686405353
 20
279885.77109311632
 40
35.842222222222226
 41
0.9781003937007872
 50
0
  1
20
  0
TEXT
  8
_0-0_
 62
    7
 10
391005.08860240591
 20
281030.34061084635
 40
43.010666666666651
 41
0.9113829463872165
 50
0
  1
TILE 450×900×20
  0
ENDSEC
  0
EOF
