  0
SECTION
  2
HEADER
  9
$ACADVER
  1
AC1009
  9
$DWGCODEPAGE
  3
dos932
  9
$INSBASE
 10
0.0
 20
0.0
 30
0.0
  9
$EXTMIN
 10
8479.01371477947
 20
-630.0
 30
0.0
  9
$EXTMAX
 10
10379.01371477947
 20
679.536567076866
 30
0.0
  9
$LIMMIN
 10
0.0
 20
0.0
  9
$LIMMAX
 10
12.0
 20
9.0
  9
$ORTHOMODE
 70
     0
  9
$REGENMODE
 70
     1
  9
$FILLMODE
 70
     1
  9
$QTEXTMODE
 70
     0
  9
$MIRRTEXT
 70
     1
  9
$DRAGMODE
 70
     2
  9
$LTSCALE
 40
254.0
  9
$OSMODE
 70
    37
  9
$ATTMODE
 70
     1
  9
$TEXTSIZE
 40
0.2
  9
$TRACEWID
 40
1.0
  9
$TEXTSTYLE
  7
STANDARD
  9
$CLAYER
  8
___-1
  9
$CELTYPE
  6
BYLAYER
  9
$CECOLOR
 62
   256
  9
$DIMSCALE
 40
1.0
  9
$DIMASZ
 40
0.18
  9
$DIMEXO
 40
0.0625
  9
$DIMDLI
 40
0.38
  9
$DIMRND
 40
0.0
  9
$DIMDLE
 40
0.0
  9
$DIMEXE
 40
0.18
  9
$DIMTP
 40
0.0
  9
$DIMTM
 40
0.0
  9
$DIMTXT
 40
0.18
  9
$DIMCEN
 40
0.09
  9
$DIMTSZ
 40
0.0
  9
$DIMTOL
 70
     0
  9
$DIMLIM
 70
     0
  9
$DIMTIH
 70
     1
  9
$DIMTOH
 70
     1
  9
$DIMSE1
 70
     0
  9
$DIMSE2
 70
     0
  9
$DIMTAD
 70
     0
  9
$DIMZIN
 70
     0
  9
$DIMBLK
  1

  9
$DIMASO
 70
     1
  9
$DIMSHO
 70
     1
  9
$DIMPOST
  1

  9
$DIMAPOST
  1

  9
$DIMALT
 70
     0
  9
$DIMALTD
 70
     2
  9
$DIMALTF
 40
25.4
  9
$DIMLFAC
 40
1.0
  9
$DIMTOFL
 70
     0
  9
$DIMTVP
 40
0.0
  9
$DIMTIX
 70
     0
  9
$DIMSOXD
 70
     0
  9
$DIMSAH
 70
     0
  9
$DIMBLK1
  1

  9
$DIMBLK2
  1

  9
$DIMSTYLE
  2
STANDARD
  9
$DIMCLRD
 70
     0
  9
$DIMCLRE
 70
     0
  9
$DIMCLRT
 70
     0
  9
$DIMTFAC
 40
1.0
  9
$DIMGAP
 40
0.09
  9
$LUNITS
 70
     2
  9
$LUPREC
 70
     2
  9
$SKETCHINC
 40
0.1
  9
$FILLETRAD
 40
0.5
  9
$AUNITS
 70
     0
  9
$AUPREC
 70
     2
  9
$MENU
  1
.
  9
$ELEVATION
 40
0.0
  9
$PELEVATION
 40
0.0
  9
$THICKNESS
 40
0.0
  9
$LIMCHECK
 70
     0
  9
$CHAMFERA
 40
0.0
  9
$CHAMFERB
 40
0.0
  9
$SKPOLY
 70
     0
  9
$TDCREATE
 40
2458823.662954583
  9
$TDUPDATE
 40
2458823.662968843
  9
$TDINDWG
 40
0.0000000116
  9
$TDUSRTIMER
 40
0.0000000116
  9
$USRTIMER
 70
     1
  9
$ANGBASE
 50
0.0
  9
$ANGDIR
 70
     0
  9
$PDMODE
 70
     1
  9
$PDSIZE
 40
-2.0
  9
$PLINEWID
 40
0.0
  9
$COORDS
 70
     1
  9
$SPLFRAME
 70
     0
  9
$SPLINETYPE
 70
     6
  9
$SPLINESEGS
 70
     8
  9
$ATTDIA
 70
     0
  9
$ATTREQ
 70
     1
  9
$HANDLING
 70
     1
  9
$HANDSEED
  5
140
  9
$SURFTAB1
 70
     6
  9
$SURFTAB2
 70
     6
  9
$SURFTYPE
 70
     6
  9
$SURFU
 70
     6
  9
$SURFV
 70
     6
  9
$UCSNAME
  2

  9
$UCSORG
 10
0.0
 20
0.0
 30
0.0
  9
$UCSXDIR
 10
1.0
 20
0.0
 30
0.0
  9
$UCSYDIR
 10
0.0
 20
1.0
 30
0.0
  9
$PUCSNAME
  2

  9
$PUCSORG
 10
0.0
 20
0.0
 30
0.0
  9
$PUCSXDIR
 10
1.0
 20
0.0
 30
0.0
  9
$PUCSYDIR
 10
0.0
 20
1.0
 30
0.0
  9
$USERI1
 70
     0
  9
$USERI2
 70
     0
  9
$USERI3
 70
     0
  9
$USERI4
 70
     0
  9
$USERI5
 70
     0
  9
$USERR1
 40
0.0
  9
$USERR2
 40
0.0
  9
$USERR3
 40
0.0
  9
$USERR4
 40
0.0
  9
$USERR5
 40
0.0
  9
$WORLDVIEW
 70
     1
  9
$SHADEDGE
 70
     3
  9
$SHADEDIF
 70
    70
  9
$TILEMODE
 70
     1
  9
$MAXACTVP
 70
    64
  9
$PLIMCHECK
 70
     0
  9
$PEXTMIN
 10
1.000000000000000E+20
 20
1.000000000000000E+20
 30
1.000000000000000E+20
  9
$PEXTMAX
 10
-1.000000000000000E+20
 20
-1.000000000000000E+20
 30
-1.000000000000000E+20
  9
$PLIMMIN
 10
-20.0
 20
-7.5
  9
$PLIMMAX
 10
277.0
 20
202.5
  9
$UNITMODE
 70
     0
  9
$VISRETAIN
 70
     1
  9
$PLINEGEN
 70
     0
  9
$PSLTSCALE
 70
     1
  0
ENDSEC
  0
SECTION
  2
TABLES
  0
TABLE
  2
VPORT
 70
     1
  0
VPORT
  2
*ACTIVE
 70
     0
 10
0.0
 20
0.0
 11
1.0
 21
1.0
 12
9429.01371477947
 22
24.76828353843302
 13
0.0
 23
0.0
 14
0.5
 24
0.5
 15
0.5
 25
0.5
 16
0.0
 26
0.0
 36
1.0
 17
0.0
 27
0.0
 37
0.0
 40
1309.536567076866
 41
1.450894956099745
 42
2000.0
 43
0.0
 44
0.0
 50
0.0
 51
0.0
 71
     0
 72
   100
 73
     1
 74
     3
 75
     0
 76
     0
 77
     0
 78
     0
  0
ENDTAB
  0
TABLE
  2
LTYPE
 70
     2
  0
LTYPE
  2
CONTINUOUS
 70
     0
  3
Solid line
 72
    65
 73
     0
 40
0.0
  0
LTYPE
  2
ISO-02___
 70
     0
  3

 72
    65
 73
     2
 40
0.15
 49
0.12
 49
-0.03
  0
ENDTAB
  0
TABLE
  2
LAYER
 70
     2
  0
LAYER
  2
0
 70
     0
 62
     7
  6
CONTINUOUS
  0
LAYER
  2
___-1
 70
     0
 62
     7
  6
CONTINUOUS
  0
ENDTAB
  0
TABLE
  2
STYLE
 70
     2
  0
STYLE
  2
STANDARD
 70
     0
 40
0.0
 41
1.0
 50
0.0
 71
     0
 42
0.2
  3
txt
  4
BIGFONT.SHX
  0
STYLE
  2
MEIRYO_UI
 70
     0
 40
0.0
 41
1.0
 50
0.0
 71
     0
 42
0.2
  3

  4
Meiryo UI
  0
ENDTAB
  0
TABLE
  2
VIEW
 70
     0
  0
ENDTAB
  0
TABLE
  2
UCS
 70
     0
  0
ENDTAB
  0
TABLE
  2
APPID
 70
     2
  0
APPID
  2
ACAD
 70
     0
  0
APPID
  2
ACAECLAYERSTANDARD
 70
     0
  0
ENDTAB
  0
TABLE
  2
DIMSTYLE
 70
     1
  0
DIMSTYLE
  2
STANDARD
 70
     0
  3

  4

  5

  6

  7

 40
1.0
 41
0.18
 42
0.0625
 43
0.38
 44
0.18
 45
0.0
 46
0.0
 47
0.0
 48
0.0
140
0.18
141
0.09
142
0.0
143
25.4
144
1.0
145
0.0
146
1.0
147
0.09
 71
     0
 72
     0
 73
     1
 74
     1
 75
     0
 76
     0
 77
     0
 78
     0
170
     0
171
     2
172
     0
173
     0
174
     0
175
     0
176
     0
177
     0
178
     0
  0
ENDTAB
  0
ENDSEC
  0
SECTION
  2
BLOCKS
  0
BLOCK
  8
0
  2
$MODEL_SPACE
 70
     0
 10
0.0
 20
0.0
 30
0.0
  3
$MODEL_SPACE
  1

  0
ENDBLK
  5
21
  8
0
  0
BLOCK
 67
     1
  8
0
  2
$PAPER_SPACE
 70
     0
 10
0.0
 20
0.0
 30
0.0
  3
$PAPER_SPACE
  1

  0
ENDBLK
  5
1D
 67
     1
  8
0
  0
ENDSEC
  0
SECTION
  2
ENTITIES
  0
POLYLINE
  5
73
  8
___-1
  6
CONTINUOUS
 62
     7
 66
     1
 10
0.0
 20
0.0
 30
0.0
 70
   129
  0
VERTEX
  5
74
  8
___-1
  6
CONTINUOUS
 62
     7
 10
8774.01371477947
 20
224.536567076866
 30
0.0
  0
VERTEX
  5
75
  8
___-1
  6
CONTINUOUS
 62
     7
 10
9224.01371477947
 20
224.536567076866
 30
0.0
  0
VERTEX
  5
76
  8
___-1
  6
CONTINUOUS
 62
     7
 10
9224.01371477947
 20
74.53656707686605
 30
0.0
  0
VERTEX
  5
77
  8
___-1
  6
CONTINUOUS
 62
     7
 10
8774.01371477947
 20
74.53656707686605
 30
0.0
  0
SEQEND
  5
78
  8
___-1
  6
CONTINUOUS
 62
     7
  0
POLYLINE
  5
79
  8
___-1
  6
CONTINUOUS
 62
     7
 66
     1
 10
0.0
 20
0.0
 30
0.0
 70
   129
  0
VERTEX
  5
7A
  8
___-1
  6
CONTINUOUS
 62
     7
 10
9224.01371477947
 20
224.536567076866
 30
0.0
  0
VERTEX
  5
7B
  8
___-1
  6
CONTINUOUS
 62
     7
 10
9674.01371477947
 20
224.536567076866
 30
0.0
  0
VERTEX
  5
7C
  8
___-1
  6
CONTINUOUS
 62
     7
 10
9674.01371477947
 20
74.53656707686605
 30
0.0
  0
VERTEX
  5
7D
  8
___-1
  6
CONTINUOUS
 62
     7
 10
9224.01371477947
 20
74.53656707686605
 30
0.0
  0
SEQEND
  5
7E
  8
___-1
  6
CONTINUOUS
 62
     7
  0
POLYLINE
  5
7F
  8
___-1
  6
CONTINUOUS
 62
     7
 66
     1
 10
0.0
 20
0.0
 30
0.0
 70
   129
  0
VERTEX
  5
80
  8
___-1
  6
CONTINUOUS
 62
     7
 10
9674.01371477947
 20
224.536567076866
 30
0.0
  0
VERTEX
  5
81
  8
___-1
  6
CONTINUOUS
 62
     7
 10
10124.01371477947
 20
224.536567076866
 30
0.0
  0
VERTEX
  5
82
  8
___-1
  6
CONTINUOUS
 62
     7
 10
10124.01371477947
 20
74.53656707686605
 30
0.0
  0
VERTEX
  5
83
  8
___-1
  6
CONTINUOUS
 62
     7
 10
9674.01371477947
 20
74.53656707686605
 30
0.0
  0
SEQEND
  5
84
  8
___-1
  6
CONTINUOUS
 62
     7
  0
POLYLINE
  5
85
  8
___-1
  6
CONTINUOUS
 62
     7
 66
     1
 10
0.0
 20
0.0
 30
0.0
 70
   129
  0
VERTEX
  5
86
  8
___-1
  6
CONTINUOUS
 62
     7
 10
8774.01371477947
 20
74.53656707686605
 30
0.0
  0
VERTEX
  5
87
  8
___-1
  6
CONTINUOUS
 62
     7
 10
9224.01371477947
 20
74.53656707686605
 30
0.0
  0
VERTEX
  5
88
  8
___-1
  6
CONTINUOUS
 62
     7
 10
9224.01371477947
 20
-75.46343292313395
 30
0.0
  0
VERTEX
  5
89
  8
___-1
  6
CONTINUOUS
 62
     7
 10
8774.01371477947
 20
-75.46343292313395
 30
0.0
  0
SEQEND
  5
8A
  8
___-1
  6
CONTINUOUS
 62
     7
  0
POLYLINE
  5
8B
  8
___-1
  6
CONTINUOUS
 62
     7
 66
     1
 10
0.0
 20
0.0
 30
0.0
 70
   129
  0
VERTEX
  5
8C
  8
___-1
  6
CONTINUOUS
 62
     7
 10
9224.01371477947
 20
74.53656707686605
 30
0.0
  0
VERTEX
  5
8D
  8
___-1
  6
CONTINUOUS
 62
     7
 10
9674.01371477947
 20
74.53656707686605
 30
0.0
  0
VERTEX
  5
8E
  8
___-1
  6
CONTINUOUS
 62
     7
 10
9674.01371477947
 20
-75.46343292313395
 30
0.0
  0
VERTEX
  5
8F
  8
___-1
  6
CONTINUOUS
 62
     7
 10
9224.01371477947
 20
-75.46343292313395
 30
0.0
  0
SEQEND
  5
90
  8
___-1
  6
CONTINUOUS
 62
     7
  0
POLYLINE
  5
91
  8
___-1
  6
CONTINUOUS
 62
     7
 66
     1
 10
0.0
 20
0.0
 30
0.0
 70
   129
  0
VERTEX
  5
92
  8
___-1
  6
CONTINUOUS
 62
     7
 10
9674.01371477947
 20
74.53656707686605
 30
0.0
  0
VERTEX
  5
93
  8
___-1
  6
CONTINUOUS
 62
     7
 10
10124.01371477947
 20
74.53656707686605
 30
0.0
  0
VERTEX
  5
94
  8
___-1
  6
CONTINUOUS
 62
     7
 10
10124.01371477947
 20
-75.46343292313395
 30
0.0
  0
VERTEX
  5
95
  8
___-1
  6
CONTINUOUS
 62
     7
 10
9674.01371477947
 20
-75.46343292313395
 30
0.0
  0
SEQEND
  5
96
  8
___-1
  6
CONTINUOUS
 62
     7
  0
POLYLINE
  5
97
  8
___-1
  6
CONTINUOUS
 62
     7
 66
     1
 10
0.0
 20
0.0
 30
0.0
 70
   129
  0
VERTEX
  5
98
  8
___-1
  6
CONTINUOUS
 62
     7
 10
8774.01371477947
 20
-75.46343292313395
 30
0.0
  0
VERTEX
  5
99
  8
___-1
  6
CONTINUOUS
 62
     7
 10
9224.01371477947
 20
-75.46343292313395
 30
0.0
  0
VERTEX
  5
9A
  8
___-1
  6
CONTINUOUS
 62
     7
 10
9224.01371477947
 20
-225.463432923134
 30
0.0
  0
VERTEX
  5
9B
  8
___-1
  6
CONTINUOUS
 62
     7
 10
8774.01371477947
 20
-225.463432923134
 30
0.0
  0
SEQEND
  5
9C
  8
___-1
  6
CONTINUOUS
 62
     7
  0
POLYLINE
  5
9D
  8
___-1
  6
CONTINUOUS
 62
     7
 66
     1
 10
0.0
 20
0.0
 30
0.0
 70
   129
  0
VERTEX
  5
9E
  8
___-1
  6
CONTINUOUS
 62
     7
 10
9224.01371477947
 20
-75.46343292313395
 30
0.0
  0
VERTEX
  5
9F
  8
___-1
  6
CONTINUOUS
 62
     7
 10
9674.01371477947
 20
-75.46343292313395
 30
0.0
  0
VERTEX
  5
A0
  8
___-1
  6
CONTINUOUS
 62
     7
 10
9674.01371477947
 20
-225.463432923134
 30
0.0
  0
VERTEX
  5
A1
  8
___-1
  6
CONTINUOUS
 62
     7
 10
9224.01371477947
 20
-225.463432923134
 30
0.0
  0
SEQEND
  5
A2
  8
___-1
  6
CONTINUOUS
 62
     7
  0
POLYLINE
  5
A3
  8
___-1
  6
CONTINUOUS
 62
     7
 66
     1
 10
0.0
 20
0.0
 30
0.0
 70
   129
  0
VERTEX
  5
A4
  8
___-1
  6
CONTINUOUS
 62
     7
 10
9674.01371477947
 20
-75.46343292313395
 30
0.0
  0
VERTEX
  5
A5
  8
___-1
  6
CONTINUOUS
 62
     7
 10
10124.01371477947
 20
-75.46343292313395
 30
0.0
  0
VERTEX
  5
A6
  8
___-1
  6
CONTINUOUS
 62
     7
 10
10124.01371477947
 20
-225.463432923134
 30
0.0
  0
VERTEX
  5
A7
  8
___-1
  6
CONTINUOUS
 62
     7
 10
9674.01371477947
 20
-225.463432923134
 30
0.0
  0
SEQEND
  5
A8
  8
___-1
  6
CONTINUOUS
 62
     7
  0
POLYLINE
  5
A9
  8
___-1
  6
CONTINUOUS
 62
     7
 66
     1
 10
0.0
 20
0.0
 30
0.0
 70
   129
  0
VERTEX
  5
AA
  8
___-1
  6
CONTINUOUS
 62
     7
 10
8648.395593468584
 20
-75.46343292313395
 30
0.0
  0
VERTEX
  5
AB
  8
___-1
  6
CONTINUOUS
 62
     7
 10
8678.395593468584
 20
-75.46343292313395
 30
0.0
  0
VERTEX
  5
AC
  8
___-1
  6
CONTINUOUS
 62
     7
 10
8678.395593468584
 20
-225.463432923134
 30
0.0
  0
VERTEX
  5
AD
  8
___-1
  6
CONTINUOUS
 62
     7
 10
8648.395593468584
 20
-225.463432923134
 30
0.0
  0
SEQEND
  5
AE
  8
___-1
  6
CONTINUOUS
 62
     7
  0
POLYLINE
  5
AF
  8
___-1
  6
CONTINUOUS
 62
     7
 66
     1
 10
0.0
 20
0.0
 30
0.0
 70
   129
  0
VERTEX
  5
B0
  8
___-1
  6
CONTINUOUS
 62
     7
 10
8648.395593468584
 20
74.53656707686605
 30
0.0
  0
VERTEX
  5
B1
  8
___-1
  6
CONTINUOUS
 62
     7
 10
8678.395593468584
 20
74.53656707686605
 30
0.0
  0
VERTEX
  5
B2
  8
___-1
  6
CONTINUOUS
 62
     7
 10
8678.395593468584
 20
-75.46343292313395
 30
0.0
  0
VERTEX
  5
B3
  8
___-1
  6
CONTINUOUS
 62
     7
 10
8648.395593468584
 20
-75.46343292313395
 30
0.0
  0
SEQEND
  5
B4
  8
___-1
  6
CONTINUOUS
 62
     7
  0
POLYLINE
  5
B5
  8
___-1
  6
CONTINUOUS
 62
     7
 66
     1
 10
0.0
 20
0.0
 30
0.0
 70
   129
  0
VERTEX
  5
B6
  8
___-1
  6
CONTINUOUS
 62
     7
 10
8648.395593468584
 20
224.536567076866
 30
0.0
  0
VERTEX
  5
B7
  8
___-1
  6
CONTINUOUS
 62
     7
 10
8678.395593468584
 20
224.536567076866
 30
0.0
  0
VERTEX
  5
B8
  8
___-1
  6
CONTINUOUS
 62
     7
 10
8678.395593468584
 20
74.53656707686605
 30
0.0
  0
VERTEX
  5
B9
  8
___-1
  6
CONTINUOUS
 62
     7
 10
8648.395593468584
 20
74.53656707686605
 30
0.0
  0
SEQEND
  5
BA
  8
___-1
  6
CONTINUOUS
 62
     7
  0
POLYLINE
  5
BB
  8
___-1
  6
CONTINUOUS
 62
     7
 66
     1
 10
0.0
 20
0.0
 30
0.0
 70
   129
  0
VERTEX
  5
BC
  8
___-1
  6
CONTINUOUS
 62
     7
 10
8643.395593468584
 20
224.536567076866
 30
0.0
  0
VERTEX
  5
BD
  8
___-1
  6
CONTINUOUS
 62
     7
 10
8648.395593468584
 20
224.536567076866
 30
0.0
  0
VERTEX
  5
BE
  8
___-1
  6
CONTINUOUS
 62
     7
 10
8648.395593468584
 20
-225.463432923134
 30
0.0
  0
VERTEX
  5
BF
  8
___-1
  6
CONTINUOUS
 62
     7
 10
8643.395593468584
 20
-225.463432923134
 30
0.0
  0
SEQEND
  5
C0
  8
___-1
  6
CONTINUOUS
 62
     7
  0
LINE
  5
C1
  8
___-1
  6
CONTINUOUS
 62
     7
 10
8774.01371477947
 20
-365.9074870727405
 30
0.0
 11
8774.01371477947
 21
-335.9074870727405
 31
0.0
  0
LINE
  5
C2
  8
___-1
  6
CONTINUOUS
 62
     7
 10
9224.01371477947
 20
-365.9074870727405
 30
0.0
 11
8774.01371477947
 21
-365.9074870727405
 31
0.0
  0
LINE
  5
C3
  8
___-1
  6
CONTINUOUS
 62
     7
 10
9224.01371477947
 20
-335.9074870727405
 30
0.0
 11
9224.01371477947
 21
-365.9074870727405
 31
0.0
  0
LINE
  5
C4
  8
___-1
  6
CONTINUOUS
 62
     7
 10
9224.01371477947
 20
-365.9074870727405
 30
0.0
 11
9224.01371477947
 21
-335.9074870727405
 31
0.0
  0
LINE
  5
C5
  8
___-1
  6
CONTINUOUS
 62
     7
 10
9674.01371477947
 20
-365.9074870727405
 30
0.0
 11
9224.01371477947
 21
-365.9074870727405
 31
0.0
  0
LINE
  5
C6
  8
___-1
  6
CONTINUOUS
 62
     7
 10
9674.01371477947
 20
-335.9074870727405
 30
0.0
 11
9674.01371477947
 21
-365.9074870727405
 31
0.0
  0
LINE
  5
C7
  8
___-1
  6
CONTINUOUS
 62
     7
 10
9674.01371477947
 20
-365.9074870727405
 30
0.0
 11
9674.01371477947
 21
-335.9074870727405
 31
0.0
  0
LINE
  5
C8
  8
___-1
  6
CONTINUOUS
 62
     7
 10
10124.01371477947
 20
-365.9074870727405
 30
0.0
 11
9674.01371477947
 21
-365.9074870727405
 31
0.0
  0
LINE
  5
C9
  8
___-1
  6
CONTINUOUS
 62
     7
 10
10124.01371477947
 20
-335.9074870727405
 30
0.0
 11
10124.01371477947
 21
-365.9074870727405
 31
0.0
  0
POLYLINE
  5
CA
  8
___-1
  6
CONTINUOUS
 62
     7
 66
     1
 10
0.0
 20
0.0
 30
0.0
 70
   129
  0
VERTEX
  5
CB
  8
___-1
  6
CONTINUOUS
 62
     7
 10
8774.01371477947
 20
-365.9074870727405
 30
0.0
  0
VERTEX
  5
CC
  8
___-1
  6
CONTINUOUS
 62
     7
 10
10124.01371477947
 20
-365.9074870727405
 30
0.0
  0
VERTEX
  5
CD
  8
___-1
  6
CONTINUOUS
 62
     7
 10
10124.01371477947
 20
-370.9074870727405
 30
0.0
  0
VERTEX
  5
CE
  8
___-1
  6
CONTINUOUS
 62
     7
 10
8774.01371477947
 20
-370.9074870727405
 30
0.0
  0
SEQEND
  5
CF
  8
___-1
  6
CONTINUOUS
 62
     7
  0
LINE
  5
D0
  8
___-1
  6
CONTINUOUS
 62
     7
 10
8774.01371477947
 20
-365.9074870727405
 30
0.0
 11
8774.01371477947
 21
-355.9074870727405
 31
0.0
  0
LINE
  5
D1
  8
___-1
  6
CONTINUOUS
 62
     7
 10
10124.01371477947
 20
-365.9074870727405
 30
0.0
 11
8774.01371477947
 21
-365.9074870727405
 31
0.0
  0
LINE
  5
D2
  8
___-1
  6
CONTINUOUS
 62
     7
 10
10124.01371477947
 20
-355.9074870727405
 30
0.0
 11
10124.01371477947
 21
-365.9074870727405
 31
0.0
  0
LINE
  5
D3
  8
___-1
  6
CONTINUOUS
 62
     7
 10
8774.01371477947
 20
-335.9074870727405
 30
0.0
 11
9224.01371477947
 21
-355.9074870727405
 31
0.0
  0
LINE
  5
D4
  8
___-1
  6
CONTINUOUS
 62
     7
 10
9224.01371477947
 20
-355.9074870727405
 30
0.0
 11
9674.01371477947
 21
-335.9074870727405
 31
0.0
  0
LINE
  5
D5
  8
___-1
  6
CONTINUOUS
 62
     7
 10
9674.01371477947
 20
-335.9074870727405
 30
0.0
 11
10124.01371477947
 21
-355.9074870727405
 31
0.0
  0
LINE
  5
D6
  8
___-1
  6
CONTINUOUS
 62
     7
 10
10124.01371477947
 20
-335.9074870727405
 30
0.0
 11
9674.01371477947
 21
-355.9074870727405
 31
0.0
  0
LINE
  5
D7
  8
___-1
  6
CONTINUOUS
 62
     7
 10
9674.01371477947
 20
-355.9074870727405
 30
0.0
 11
9224.01371477947
 21
-335.9074870727405
 31
0.0
  0
LINE
  5
D8
  8
___-1
  6
CONTINUOUS
 62
     7
 10
9224.01371477947
 20
-335.9074870727405
 30
0.0
 11
8774.01371477947
 21
-355.9074870727405
 31
0.0
  0
LINE
  5
D9
  8
___-1
  6
CONTINUOUS
 62
    30
 10
8774.01371477947
 20
244.536567076866
 30
0.0
 11
8774.01371477947
 21
284.536567076866
 31
0.0
  0
LINE
  5
DA
  8
___-1
  6
CONTINUOUS
 62
    30
 10
9224.01371477947
 20
244.536567076866
 30
0.0
 11
9224.01371477947
 21
284.536567076866
 31
0.0
  0
LINE
  5
DB
  8
___-1
  6
CONTINUOUS
 62
    30
 10
8774.01371477947
 20
284.536567076866
 30
0.0
 11
9224.01371477947
 21
284.536567076866
 31
0.0
  0
CIRCLE
  5
DC
  8
___-1
  6
CONTINUOUS
 62
    30
 10
8774.01371477947
 20
284.536567076866
 30
0.0
 40
3.24786376953125
  0
CIRCLE
  5
DD
  8
___-1
  6
CONTINUOUS
 62
    30
 10
9224.01371477947
 20
284.536567076866
 30
0.0
 40
3.24786376953125
  0
TEXT
  5
DE
  8
___-1
 62
    30
 10
8966.14750384197
 20
292.9449004101994
 30
0.0
 40
25.83821614583334
  1
450
  7
MEIRYO_UI
 11
8966.14750384197
 21
318.7831165560327
 31
0.0
 73
     3
  0
LINE
  5
DF
  8
___-1
  6
CONTINUOUS
 62
    30
 10
9674.01371477947
 20
244.536567076866
 30
0.0
 11
9674.01371477947
 21
284.536567076866
 31
0.0
  0
LINE
  5
E0
  8
___-1
  6
CONTINUOUS
 62
    30
 10
9224.01371477947
 20
244.536567076866
 30
0.0
 11
9224.01371477947
 21
284.536567076866
 31
0.0
  0
LINE
  5
E1
  8
___-1
  6
CONTINUOUS
 62
    30
 10
9674.01371477947
 20
284.536567076866
 30
0.0
 11
9224.01371477947
 21
284.536567076866
 31
0.0
  0
CIRCLE
  5
E2
  8
___-1
  6
CONTINUOUS
 62
    30
 10
9674.01371477947
 20
284.536567076866
 30
0.0
 40
3.24786376953125
  0
CIRCLE
  5
E3
  8
___-1
  6
CONTINUOUS
 62
    30
 10
9224.01371477947
 20
284.536567076866
 30
0.0
 40
3.24786376953125
  0
TEXT
  5
E4
  8
___-1
 62
    30
 10
9416.14750384197
 20
292.9449004101994
 30
0.0
 40
25.83821614583334
  1
450
  7
MEIRYO_UI
 11
9416.14750384197
 21
318.7831165560327
 31
0.0
 73
     3
  0
LINE
  5
E5
  8
___-1
  6
CONTINUOUS
 62
    30
 10
9674.01371477947
 20
244.536567076866
 30
0.0
 11
9674.01371477947
 21
284.536567076866
 31
0.0
  0
LINE
  5
E6
  8
___-1
  6
CONTINUOUS
 62
    30
 10
10124.01371477947
 20
244.536567076866
 30
0.0
 11
10124.01371477947
 21
284.536567076866
 31
0.0
  0
LINE
  5
E7
  8
___-1
  6
CONTINUOUS
 62
    30
 10
9674.01371477947
 20
284.536567076866
 30
0.0
 11
10124.01371477947
 21
284.536567076866
 31
0.0
  0
CIRCLE
  5
E8
  8
___-1
  6
CONTINUOUS
 62
    30
 10
9674.01371477947
 20
284.536567076866
 30
0.0
 40
3.24786376953125
  0
CIRCLE
  5
E9
  8
___-1
  6
CONTINUOUS
 62
    30
 10
10124.01371477947
 20
284.536567076866
 30
0.0
 40
3.24786376953125
  0
TEXT
  5
EA
  8
___-1
 62
    30
 10
9866.14750384197
 20
292.9449004101994
 30
0.0
 40
25.83821614583336
  1
450
  7
MEIRYO_UI
 11
9866.14750384197
 21
318.7831165560327
 31
0.0
 73
     3
  0
LINE
  5
EB
  8
___-1
  6
CONTINUOUS
 62
    30
 10
8774.01371477947
 20
244.536567076866
 30
0.0
 11
8774.01371477947
 21
334.536567076866
 31
0.0
  0
LINE
  5
EC
  8
___-1
  6
CONTINUOUS
 62
    30
 10
10124.01371477947
 20
244.536567076866
 30
0.0
 11
10124.01371477947
 21
334.536567076866
 31
0.0
  0
LINE
  5
ED
  8
___-1
  6
CONTINUOUS
 62
    30
 10
8774.01371477947
 20
334.536567076866
 30
0.0
 11
10124.01371477947
 21
334.536567076866
 31
0.0
  0
CIRCLE
  5
EE
  8
___-1
  6
CONTINUOUS
 62
    30
 10
8774.01371477947
 20
334.536567076866
 30
0.0
 40
3.24786376953125
  0
CIRCLE
  5
EF
  8
___-1
  6
CONTINUOUS
 62
    30
 10
10124.01371477947
 20
334.536567076866
 30
0.0
 40
3.24786376953125
  0
TEXT
  5
F0
  8
___-1
 62
    30
 10
9405.192100196138
 20
342.9449004101993
 30
0.0
 40
25.83821614583334
  1
1350
  7
MEIRYO_UI
 11
9405.192100196138
 21
368.7831165560326
 31
0.0
 73
     3
  0
LINE
  5
F1
  8
___-1
  6
CONTINUOUS
 62
    30
 10
10144.01371477947
 20
-75.46343292313395
 30
0.0
 11
10204.01371477947
 21
-75.46343292313395
 31
0.0
  0
LINE
  5
F2
  8
___-1
  6
CONTINUOUS
 62
    30
 10
10144.01371477947
 20
-225.463432923134
 30
0.0
 11
10204.01371477947
 21
-225.463432923134
 31
0.0
  0
LINE
  5
F3
  8
___-1
  6
CONTINUOUS
 62
    30
 10
10204.01371477947
 20
-75.46343292313395
 30
0.0
 11
10204.01371477947
 21
-225.463432923134
 31
0.0
  0
CIRCLE
  5
F4
  8
___-1
  6
CONTINUOUS
 62
    30
 10
10204.01371477947
 20
-75.46343292313395
 30
0.0
 40
3.24786376953125
  0
CIRCLE
  5
F5
  8
___-1
  6
CONTINUOUS
 62
    30
 10
10204.01371477947
 20
-225.463432923134
 30
0.0
 40
3.24786376953125
  0
TEXT
  5
F6
  8
___-1
 62
    30
 10
10195.60538144614
 20
-183.329643860634
 30
0.0
 40
25.83821614583336
  1
150
 50
90.0
  7
MEIRYO_UI
 11
10169.7671653003
 21
-183.329643860634
 31
0.0
 73
     3
  0
LINE
  5
F7
  8
___-1
  6
CONTINUOUS
 62
    30
 10
10144.01371477947
 20
-75.46343292313395
 30
0.0
 11
10204.01371477947
 21
-75.46343292313395
 31
0.0
  0
LINE
  5
F8
  8
___-1
  6
CONTINUOUS
 62
    30
 10
10144.01371477947
 20
74.53656707686605
 30
0.0
 11
10204.01371477947
 21
74.53656707686605
 31
0.0
  0
LINE
  5
F9
  8
___-1
  6
CONTINUOUS
 62
    30
 10
10204.01371477947
 20
-75.46343292313395
 30
0.0
 11
10204.01371477947
 21
74.53656707686605
 31
0.0
  0
CIRCLE
  5
FA
  8
___-1
  6
CONTINUOUS
 62
    30
 10
10204.01371477947
 20
-75.46343292313395
 30
0.0
 40
3.24786376953125
  0
CIRCLE
  5
FB
  8
___-1
  6
CONTINUOUS
 62
    30
 10
10204.01371477947
 20
74.53656707686605
 30
0.0
 40
3.24786376953125
  0
TEXT
  5
FC
  8
___-1
 62
    30
 10
10195.60538144614
 20
-33.32964386063395
 30
0.0
 40
25.83821614583336
  1
150
 50
90.0
  7
MEIRYO_UI
 11
10169.7671653003
 21
-33.32964386063395
 31
0.0
 73
     3
  0
LINE
  5
FD
  8
___-1
  6
CONTINUOUS
 62
    30
 10
10144.01371477947
 20
224.536567076866
 30
0.0
 11
10204.01371477947
 21
224.536567076866
 31
0.0
  0
LINE
  5
FE
  8
___-1
  6
CONTINUOUS
 62
    30
 10
10144.01371477947
 20
74.53656707686605
 30
0.0
 11
10204.01371477947
 21
74.53656707686605
 31
0.0
  0
LINE
  5
FF
  8
___-1
  6
CONTINUOUS
 62
    30
 10
10204.01371477947
 20
224.536567076866
 30
0.0
 11
10204.01371477947
 21
74.53656707686605
 31
0.0
  0
CIRCLE
  5
100
  8
___-1
  6
CONTINUOUS
 62
    30
 10
10204.01371477947
 20
224.536567076866
 30
0.0
 40
3.24786376953125
  0
CIRCLE
  5
101
  8
___-1
  6
CONTINUOUS
 62
    30
 10
10204.01371477947
 20
74.53656707686605
 30
0.0
 40
3.24786376953125
  0
TEXT
  5
102
  8
___-1
 62
    30
 10
10195.60538144614
 20
116.670356139366
 30
0.0
 40
25.83821614583336
  1
150
 50
90.0
  7
MEIRYO_UI
 11
10169.7671653003
 21
116.670356139366
 31
0.0
 73
     3
  0
LINE
  5
103
  8
___-1
  6
CONTINUOUS
 62
    30
 10
8643.395593468584
 20
-245.463432923134
 30
0.0
 11
8643.395593468584
 21
-305.463432923134
 31
0.0
  0
LINE
  5
104
  8
___-1
  6
CONTINUOUS
 62
    30
 10
8678.395593468584
 20
-245.463432923134
 30
0.0
 11
8678.395593468584
 21
-305.463432923134
 31
0.0
  0
LINE
  5
105
  8
___-1
  6
CONTINUOUS
 62
    30
 10
8643.395593468584
 20
-305.463432923134
 30
0.0
 11
8678.395593468584
 21
-305.463432923134
 31
0.0
  0
CIRCLE
  5
106
  8
___-1
  6
CONTINUOUS
 62
    30
 10
8643.395593468584
 20
-305.463432923134
 30
0.0
 40
3.24786376953125
  0
CIRCLE
  5
107
  8
___-1
  6
CONTINUOUS
 62
    30
 10
8678.395593468584
 20
-305.463432923134
 30
0.0
 40
3.24786376953125
  0
TEXT
  5
108
  8
___-1
 62
    30
 10
8638.984786176916
 20
-297.0550995898006
 30
0.0
 40
25.83821614583336
  1
35
  7
MEIRYO_UI
 11
8638.984786176916
 21
-271.2168834439673
 31
0.0
 73
     3
  0
LINE
  5
109
  8
___-1
  6
CONTINUOUS
 62
    30
 10
10144.01371477947
 20
-370.9074870727405
 30
0.0
 11
10204.01371477947
 21
-370.9074870727405
 31
0.0
  0
LINE
  5
10A
  8
___-1
  6
CONTINUOUS
 62
    30
 10
10144.01371477947
 20
-335.9074870727405
 30
0.0
 11
10204.01371477947
 21
-335.9074870727405
 31
0.0
  0
LINE
  5
10B
  8
___-1
  6
CONTINUOUS
 62
    30
 10
10204.01371477947
 20
-370.9074870727405
 30
0.0
 11
10204.01371477947
 21
-335.9074870727405
 31
0.0
  0
CIRCLE
  5
10C
  8
___-1
  6
CONTINUOUS
 62
    30
 10
10204.01371477947
 20
-370.9074870727405
 30
0.0
 40
3.24786376953125
  0
CIRCLE
  5
10D
  8
___-1
  6
CONTINUOUS
 62
    30
 10
10204.01371477947
 20
-335.9074870727405
 30
0.0
 40
3.24786376953125
  0
TEXT
  5
10E
  8
___-1
 62
    30
 10
10195.60538144614
 20
-375.3182943644072
 30
0.0
 40
25.83821614583336
  1
35
 50
90.0
  7
MEIRYO_UI
 11
10169.7671653003
 21
-375.3182943644072
 31
0.0
 73
     3
  0
LINE
  5
10F
  8
___-1
  6
CONTINUOUS
 62
    30
 10
8754.01371477947
 20
-365.9074870727405
 30
0.0
 11
8714.01371477947
 21
-365.9074870727405
 31
0.0
  0
LINE
  5
110
  8
___-1
  6
CONTINUOUS
 62
    30
 10
8754.01371477947
 20
-370.9074870727405
 30
0.0
 11
8714.01371477947
 21
-370.9074870727405
 31
0.0
  0
LINE
  5
111
  8
___-1
  6
CONTINUOUS
 62
    30
 10
8714.01371477947
 20
-365.9074870727405
 30
0.0
 11
8714.01371477947
 21
-398.9821827486436
 31
0.0
  0
LINE
  5
112
  8
___-1
  6
CONTINUOUS
 62
    30
 10
8714.01371477947
 20
-365.9074870727405
 30
0.0
 11
8714.01371477947
 21
-370.9074870727405
 31
0.0
  0
CIRCLE
  5
113
  8
___-1
  6
CONTINUOUS
 62
    30
 10
8714.01371477947
 20
-365.9074870727405
 30
0.0
 40
3.24786376953125
  0
CIRCLE
  5
114
  8
___-1
  6
CONTINUOUS
 62
    30
 10
8714.01371477947
 20
-370.9074870727405
 30
0.0
 40
3.24786376953125
  0
TEXT
  5
115
  8
___-1
 62
    30
 10
8707.005381446146
 20
-398.9821827486435
 30
0.0
 40
25.83821614583336
  1
5
 50
90.0
  7
MEIRYO_UI
 11
8681.167165300312
 21
-398.9821827486435
 31
0.0
 73
     3
  0
LINE
  5
116
  8
___-1
  6
CONTINUOUS
 62
    30
 10
8754.01371477947
 20
-365.9074870727405
 30
0.0
 11
8714.01371477947
 21
-365.9074870727405
 31
0.0
  0
LINE
  5
117
  8
___-1
  6
CONTINUOUS
 62
    30
 10
8754.01371477947
 20
-335.9074870727405
 30
0.0
 11
8714.01371477947
 21
-335.9074870727405
 31
0.0
  0
LINE
  5
118
  8
___-1
  6
CONTINUOUS
 62
    30
 10
8714.01371477947
 20
-365.9074870727405
 30
0.0
 11
8714.01371477947
 21
-335.9074870727405
 31
0.0
  0
CIRCLE
  5
119
  8
___-1
  6
CONTINUOUS
 62
    30
 10
8714.01371477947
 20
-365.9074870727405
 30
0.0
 40
3.24786376953125
  0
CIRCLE
  5
11A
  8
___-1
  6
CONTINUOUS
 62
    30
 10
8714.01371477947
 20
-335.9074870727405
 30
0.0
 40
3.24786376953125
  0
TEXT
  5
11B
  8
___-1
 62
    30
 10
8705.605381446136
 20
-372.8182943644072
 30
0.0
 40
25.83821614583336
  1
30
 50
90.0
  7
MEIRYO_UI
 11
8679.767165300302
 21
-372.8182943644072
 31
0.0
 73
     3
  0
POLYLINE
  5
11C
  8
___-1
  6
CONTINUOUS
 62
     1
 66
     1
 10
0.0
 20
0.0
 30
0.0
 70
   129
  0
VERTEX
  5
11D
  8
___-1
  6
CONTINUOUS
 62
     1
 10
8479.01371477947
 20
679.536567076866
 30
0.0
  0
VERTEX
  5
11E
  8
___-1
  6
CONTINUOUS
 62
     1
 10
10379.01371477947
 20
679.536567076866
 30
0.0
  0
VERTEX
  5
11F
  8
___-1
  6
CONTINUOUS
 62
     1
 10
10379.01371477947
 20
-630.0
 30
0.0
  0
VERTEX
  5
120
  8
___-1
  6
CONTINUOUS
 62
     1
 10
8479.01371477947
 20
-630.0
 30
0.0
  0
SEQEND
  5
121
  8
___-1
  6
CONTINUOUS
 62
     1
  0
POLYLINE
  5
122
  8
___-1
  6
CONTINUOUS
 62
     1
 66
     1
 10
0.0
 20
0.0
 30
0.0
 70
   129
  0
VERTEX
  5
123
  8
___-1
  6
CONTINUOUS
 62
     1
 10
8799.01371477947
 20
-370.9074870727405
 30
0.0
  0
VERTEX
  5
124
  8
___-1
  6
CONTINUOUS
 62
     1
 10
8874.01371477947
 20
-370.9074870727405
 30
0.0
  0
VERTEX
  5
125
  8
___-1
  6
CONTINUOUS
 62
     1
 10
8874.01371477947
 20
-372.9074870727405
 30
0.0
  0
VERTEX
  5
126
  8
___-1
  6
CONTINUOUS
 62
     1
 10
8799.01371477947
 20
-372.9074870727405
 30
0.0
  0
SEQEND
  5
127
  8
___-1
  6
CONTINUOUS
 62
     1
  0
POLYLINE
  5
128
  8
___-1
  6
CONTINUOUS
 62
     1
 66
     1
 10
0.0
 20
0.0
 30
0.0
 70
   129
  0
VERTEX
  5
129
  8
___-1
  6
CONTINUOUS
 62
     1
 10
10024.01371477947
 20
-370.9074870727405
 30
0.0
  0
VERTEX
  5
12A
  8
___-1
  6
CONTINUOUS
 62
     1
 10
10099.01371477947
 20
-370.9074870727405
 30
0.0
  0
VERTEX
  5
12B
  8
___-1
  6
CONTINUOUS
 62
     1
 10
10099.01371477947
 20
-372.9074870727405
 30
0.0
  0
VERTEX
  5
12C
  8
___-1
  6
CONTINUOUS
 62
     1
 10
10024.01371477947
 20
-372.9074870727405
 30
0.0
  0
SEQEND
  5
12D
  8
___-1
  6
CONTINUOUS
 62
     1
  0
POLYLINE
  5
12E
  8
___-1
  6
CONTINUOUS
 62
     1
 66
     1
 10
0.0
 20
0.0
 30
0.0
 70
   129
  0
VERTEX
  5
12F
  8
___-1
  6
CONTINUOUS
 62
     1
 10
9411.51371477947
 20
-370.9074870727405
 30
0.0
  0
VERTEX
  5
130
  8
___-1
  6
CONTINUOUS
 62
     1
 10
9486.51371477947
 20
-370.9074870727405
 30
0.0
  0
VERTEX
  5
131
  8
___-1
  6
CONTINUOUS
 62
     1
 10
9486.51371477947
 20
-372.9074870727405
 30
0.0
  0
VERTEX
  5
132
  8
___-1
  6
CONTINUOUS
 62
     1
 10
9411.51371477947
 20
-372.9074870727405
 30
0.0
  0
SEQEND
  5
133
  8
___-1
  6
CONTINUOUS
 62
     1
  0
TEXT
  5
134
  8
___-1
 62
     1
 10
8479.01371477947
 20
634.6632337435327
 30
0.0
 40
31.005859375
  1
SLOPEY1350
  7
MEIRYO_UI
 11
8479.01371477947
 21
665.6690931185327
 31
0.0
 73
     3
  0
VIEWPORT
  5
135
 67
     1
  8
0
 10
128.5
 20
97.5
 30
0.0
 40
314.226
 41
222.18
 68
     1
 69
     1
1001
ACAD
1000
MVIEW
1002
{
1070
    16
1010
0.0
1020
0.0
1030
0.0
1010
0.0
1020
0.0
1030
1.0
1040
0.0
1040
222.18
1040
128.5
1040
97.5
1040
50.0
1040
0.0
1040
0.0
1070
     0
1070
   100
1070
     0
1070
     3
1070
     0
1070
     0
1070
     0
1070
     0
1040
0.0
1040
0.0
1040
0.0
1040
10.0
1040
10.0
1040
10.0
1040
10.0
1070
     0
1002
{
1002
}
1002
}
  0
ENDSEC
  0
EOF
