  0
SECTION
  2
HEADER
  9
$ACADVER
  1
AC1009
  9
$DWGCODEPAGE
  3
dos932
  9
$INSBASE
 10
0.0
 20
0.0
 30
0.0
  9
$EXTMIN
 10
8537.208995404251
 20
-692.9166783487349
 30
0.0
  9
$EXTMAX
 10
10437.20899540425
 20
616.6198887281312
 30
0.0
  9
$LIMMIN
 10
0.0
 20
0.0
  9
$LIMMAX
 10
12.0
 20
9.0
  9
$ORTHOMODE
 70
     0
  9
$REGENMODE
 70
     1
  9
$FILLMODE
 70
     1
  9
$QTEXTMODE
 70
     0
  9
$MIRRTEXT
 70
     1
  9
$DRAGMODE
 70
     2
  9
$LTSCALE
 40
254.0
  9
$OSMODE
 70
    37
  9
$ATTMODE
 70
     1
  9
$TEXTSIZE
 40
0.2
  9
$TRACEWID
 40
1.0
  9
$TEXTSTYLE
  7
STANDARD
  9
$CLAYER
  8
___-1
  9
$CELTYPE
  6
BYLAYER
  9
$CECOLOR
 62
   256
  9
$DIMSCALE
 40
1.0
  9
$DIMASZ
 40
0.18
  9
$DIMEXO
 40
0.0625
  9
$DIMDLI
 40
0.38
  9
$DIMRND
 40
0.0
  9
$DIMDLE
 40
0.0
  9
$DIMEXE
 40
0.18
  9
$DIMTP
 40
0.0
  9
$DIMTM
 40
0.0
  9
$DIMTXT
 40
0.18
  9
$DIMCEN
 40
0.09
  9
$DIMTSZ
 40
0.0
  9
$DIMTOL
 70
     0
  9
$DIMLIM
 70
     0
  9
$DIMTIH
 70
     1
  9
$DIMTOH
 70
     1
  9
$DIMSE1
 70
     0
  9
$DIMSE2
 70
     0
  9
$DIMTAD
 70
     0
  9
$DIMZIN
 70
     0
  9
$DIMBLK
  1

  9
$DIMASO
 70
     1
  9
$DIMSHO
 70
     1
  9
$DIMPOST
  1

  9
$DIMAPOST
  1

  9
$DIMALT
 70
     0
  9
$DIMALTD
 70
     2
  9
$DIMALTF
 40
25.4
  9
$DIMLFAC
 40
1.0
  9
$DIMTOFL
 70
     0
  9
$DIMTVP
 40
0.0
  9
$DIMTIX
 70
     0
  9
$DIMSOXD
 70
     0
  9
$DIMSAH
 70
     0
  9
$DIMBLK1
  1

  9
$DIMBLK2
  1

  9
$DIMSTYLE
  2
STANDARD
  9
$DIMCLRD
 70
     0
  9
$DIMCLRE
 70
     0
  9
$DIMCLRT
 70
     0
  9
$DIMTFAC
 40
1.0
  9
$DIMGAP
 40
0.09
  9
$LUNITS
 70
     2
  9
$LUPREC
 70
     2
  9
$SKETCHINC
 40
0.1
  9
$FILLETRAD
 40
0.5
  9
$AUNITS
 70
     0
  9
$AUPREC
 70
     2
  9
$MENU
  1
.
  9
$ELEVATION
 40
0.0
  9
$PELEVATION
 40
0.0
  9
$THICKNESS
 40
0.0
  9
$LIMCHECK
 70
     0
  9
$CHAMFERA
 40
0.0
  9
$CHAMFERB
 40
0.0
  9
$SKPOLY
 70
     0
  9
$TDCREATE
 40
2458823.660510093
  9
$TDUPDATE
 40
2458823.66052206
  9
$TDINDWG
 40
0.0000000116
  9
$TDUSRTIMER
 40
0.0000000116
  9
$USRTIMER
 70
     1
  9
$ANGBASE
 50
0.0
  9
$ANGDIR
 70
     0
  9
$PDMODE
 70
     1
  9
$PDSIZE
 40
-2.0
  9
$PLINEWID
 40
0.0
  9
$COORDS
 70
     1
  9
$SPLFRAME
 70
     0
  9
$SPLINETYPE
 70
     6
  9
$SPLINESEGS
 70
     8
  9
$ATTDIA
 70
     0
  9
$ATTREQ
 70
     1
  9
$HANDLING
 70
     1
  9
$HANDSEED
  5
BF
  9
$SURFTAB1
 70
     6
  9
$SURFTAB2
 70
     6
  9
$SURFTYPE
 70
     6
  9
$SURFU
 70
     6
  9
$SURFV
 70
     6
  9
$UCSNAME
  2

  9
$UCSORG
 10
0.0
 20
0.0
 30
0.0
  9
$UCSXDIR
 10
1.0
 20
0.0
 30
0.0
  9
$UCSYDIR
 10
0.0
 20
1.0
 30
0.0
  9
$PUCSNAME
  2

  9
$PUCSORG
 10
0.0
 20
0.0
 30
0.0
  9
$PUCSXDIR
 10
1.0
 20
0.0
 30
0.0
  9
$PUCSYDIR
 10
0.0
 20
1.0
 30
0.0
  9
$USERI1
 70
     0
  9
$USERI2
 70
     0
  9
$USERI3
 70
     0
  9
$USERI4
 70
     0
  9
$USERI5
 70
     0
  9
$USERR1
 40
0.0
  9
$USERR2
 40
0.0
  9
$USERR3
 40
0.0
  9
$USERR4
 40
0.0
  9
$USERR5
 40
0.0
  9
$WORLDVIEW
 70
     1
  9
$SHADEDGE
 70
     3
  9
$SHADEDIF
 70
    70
  9
$TILEMODE
 70
     1
  9
$MAXACTVP
 70
    64
  9
$PLIMCHECK
 70
     0
  9
$PEXTMIN
 10
1.000000000000000E+20
 20
1.000000000000000E+20
 30
1.000000000000000E+20
  9
$PEXTMAX
 10
-1.000000000000000E+20
 20
-1.000000000000000E+20
 30
-1.000000000000000E+20
  9
$PLIMMIN
 10
-20.0
 20
-7.5
  9
$PLIMMAX
 10
277.0
 20
202.5
  9
$UNITMODE
 70
     0
  9
$VISRETAIN
 70
     1
  9
$PLINEGEN
 70
     0
  9
$PSLTSCALE
 70
     1
  0
ENDSEC
  0
SECTION
  2
TABLES
  0
TABLE
  2
VPORT
 70
     1
  0
VPORT
  2
*ACTIVE
 70
     0
 10
0.0
 20
0.0
 11
1.0
 21
1.0
 12
9487.208995404251
 22
-38.14839481030185
 13
0.0
 23
0.0
 14
0.5
 24
0.5
 15
0.5
 25
0.5
 16
0.0
 26
0.0
 36
1.0
 17
0.0
 27
0.0
 37
0.0
 40
1309.536567076866
 41
1.450894956099745
 42
2000.0
 43
0.0
 44
0.0
 50
0.0
 51
0.0
 71
     0
 72
   100
 73
     1
 74
     3
 75
     0
 76
     0
 77
     0
 78
     0
  0
ENDTAB
  0
TABLE
  2
LTYPE
 70
     2
  0
LTYPE
  2
CONTINUOUS
 70
     0
  3
Solid line
 72
    65
 73
     0
 40
0.0
  0
LTYPE
  2
ISO-02___
 70
     0
  3

 72
    65
 73
     2
 40
0.15
 49
0.12
 49
-0.03
  0
ENDTAB
  0
TABLE
  2
LAYER
 70
     2
  0
LAYER
  2
0
 70
     0
 62
     7
  6
CONTINUOUS
  0
LAYER
  2
___-1
 70
     0
 62
     7
  6
CONTINUOUS
  0
ENDTAB
  0
TABLE
  2
STYLE
 70
     2
  0
STYLE
  2
STANDARD
 70
     0
 40
0.0
 41
1.0
 50
0.0
 71
     0
 42
0.2
  3
txt
  4
BIGFONT.SHX
  0
STYLE
  2
MEIRYO_UI
 70
     0
 40
0.0
 41
1.0
 50
0.0
 71
     0
 42
0.2
  3

  4
Meiryo UI
  0
ENDTAB
  0
TABLE
  2
VIEW
 70
     0
  0
ENDTAB
  0
TABLE
  2
UCS
 70
     0
  0
ENDTAB
  0
TABLE
  2
APPID
 70
     2
  0
APPID
  2
ACAD
 70
     0
  0
APPID
  2
ACAECLAYERSTANDARD
 70
     0
  0
ENDTAB
  0
TABLE
  2
DIMSTYLE
 70
     1
  0
DIMSTYLE
  2
STANDARD
 70
     0
  3

  4

  5

  6

  7

 40
1.0
 41
0.18
 42
0.0625
 43
0.38
 44
0.18
 45
0.0
 46
0.0
 47
0.0
 48
0.0
140
0.18
141
0.09
142
0.0
143
25.4
144
1.0
145
0.0
146
1.0
147
0.09
 71
     0
 72
     0
 73
     1
 74
     1
 75
     0
 76
     0
 77
     0
 78
     0
170
     0
171
     2
172
     0
173
     0
174
     0
175
     0
176
     0
177
     0
178
     0
  0
ENDTAB
  0
ENDSEC
  0
SECTION
  2
BLOCKS
  0
BLOCK
  8
0
  2
$MODEL_SPACE
 70
     0
 10
0.0
 20
0.0
 30
0.0
  3
$MODEL_SPACE
  1

  0
ENDBLK
  5
21
  8
0
  0
BLOCK
 67
     1
  8
0
  2
$PAPER_SPACE
 70
     0
 10
0.0
 20
0.0
 30
0.0
  3
$PAPER_SPACE
  1

  0
ENDBLK
  5
1D
 67
     1
  8
0
  0
ENDSEC
  0
SECTION
  2
ENTITIES
  0
POLYLINE
  5
73
  8
___-1
  6
CONTINUOUS
 62
     7
 66
     1
 10
0.0
 20
0.0
 30
0.0
 70
   129
  0
VERTEX
  5
74
  8
___-1
  6
CONTINUOUS
 62
     7
 10
10241.99214964267
 20
26.61988872813117
 30
0.0
  0
VERTEX
  5
75
  8
___-1
  6
CONTINUOUS
 62
     7
 10
10241.99214964267
 20
-153.3801112718688
 30
0.0
  0
VERTEX
  5
76
  8
___-1
  6
CONTINUOUS
 62
     7
 10
8891.992149642669
 20
-153.3801112718688
 30
0.0
  0
VERTEX
  5
77
  8
___-1
  6
CONTINUOUS
 62
     7
 10
8891.992149642669
 20
26.61988872813117
 30
0.0
  0
SEQEND
  5
78
  8
___-1
  6
CONTINUOUS
 62
     7
  0
LINE
  5
79
  8
___-1
  6
CONTINUOUS
 62
     7
 10
10241.99214964267
 20
-63.38011127186883
 30
0.0
 11
8891.992149642669
 21
-63.38011127186883
 31
0.0
  0
LINE
  5
7A
  8
___-1
  6
CONTINUOUS
 62
     7
 10
8705.617068538153
 20
26.61988872813117
 30
0.0
 11
8785.617068538153
 21
-63.38011127186883
 31
0.0
  0
LINE
  5
7B
  8
___-1
  6
CONTINUOUS
 62
     7
 10
8785.617068538153
 20
-63.38011127186883
 30
0.0
 11
8705.617068538153
 21
-153.3801112718688
 31
0.0
  0
LINE
  5
7C
  8
___-1
  6
CONTINUOUS
 62
     7
 10
8705.617068538153
 20
26.61988872813117
 30
0.0
 11
8705.617068538153
 21
-153.3801112718688
 31
0.0
  0
POLYLINE
  5
7D
  8
___-1
  6
CONTINUOUS
 62
     7
 66
     1
 10
0.0
 20
0.0
 30
0.0
 70
   129
  0
VERTEX
  5
7E
  8
___-1
  6
CONTINUOUS
 62
     7
 10
10241.99214964267
 20
-342.1812162593055
 30
0.0
  0
VERTEX
  5
7F
  8
___-1
  6
CONTINUOUS
 62
     7
 10
10241.99214964267
 20
-422.1812162593055
 30
0.0
  0
VERTEX
  5
80
  8
___-1
  6
CONTINUOUS
 62
     7
 10
8891.992149642669
 20
-422.1812162593055
 30
0.0
  0
VERTEX
  5
81
  8
___-1
  6
CONTINUOUS
 62
     7
 10
8891.992149642669
 20
-342.1812162593055
 30
0.0
  0
SEQEND
  5
82
  8
___-1
  6
CONTINUOUS
 62
     7
  0
LINE
  5
83
  8
___-1
  6
CONTINUOUS
 62
    30
 10
8891.992149642669
 20
46.61988872813117
 30
0.0
 11
8891.992149642669
 21
86.61988872813117
 31
0.0
  0
LINE
  5
84
  8
___-1
  6
CONTINUOUS
 62
    30
 10
10241.99214964267
 20
46.61988872813117
 30
0.0
 11
10241.99214964267
 21
86.61988872813117
 31
0.0
  0
LINE
  5
85
  8
___-1
  6
CONTINUOUS
 62
    30
 10
8891.992149642669
 20
86.61988872813117
 30
0.0
 11
10241.99214964267
 21
86.61988872813117
 31
0.0
  0
CIRCLE
  5
86
  8
___-1
  6
CONTINUOUS
 62
    30
 10
8891.992149642669
 20
86.61988872813117
 30
0.0
 40
3.24786376953125
  0
CIRCLE
  5
87
  8
___-1
  6
CONTINUOUS
 62
    30
 10
10241.99214964267
 20
86.61988872813117
 30
0.0
 40
3.24786376953125
  0
TEXT
  5
88
  8
___-1
 62
    30
 10
9523.170535059335
 20
95.0282220614645
 30
0.0
 40
25.83821614583336
  1
1350
  7
MEIRYO_UI
 11
9523.170535059335
 21
120.8664382072979
 31
0.0
 73
     3
  0
LINE
  5
89
  8
___-1
  6
CONTINUOUS
 62
    30
 10
10261.99214964267
 20
26.61988872813117
 30
0.0
 11
10321.99214964267
 21
26.61988872813117
 31
0.0
  0
LINE
  5
8A
  8
___-1
  6
CONTINUOUS
 62
    30
 10
10261.99214964267
 20
-153.3801112718688
 30
0.0
 11
10321.99214964267
 21
-153.3801112718688
 31
0.0
  0
LINE
  5
8B
  8
___-1
  6
CONTINUOUS
 62
    30
 10
10321.99214964267
 20
26.61988872813117
 30
0.0
 11
10321.99214964267
 21
-153.3801112718688
 31
0.0
  0
CIRCLE
  5
8C
  8
___-1
  6
CONTINUOUS
 62
    30
 10
10321.99214964267
 20
26.61988872813117
 30
0.0
 40
3.24786376953125
  0
CIRCLE
  5
8D
  8
___-1
  6
CONTINUOUS
 62
    30
 10
10321.99214964267
 20
-153.3801112718688
 30
0.0
 40
3.24786376953125
  0
TEXT
  5
8E
  8
___-1
 62
    30
 10
10313.58381630933
 20
-96.24632220936883
 30
0.0
 40
25.83821614583336
  1
180
 50
90.0
  7
MEIRYO_UI
 11
10287.7456001635
 21
-96.24632220936883
 31
0.0
 73
     3
  0
LINE
  5
8F
  8
___-1
  6
CONTINUOUS
 62
    30
 10
8785.617068538153
 20
46.61988872813117
 30
0.0
 11
8785.617068538153
 21
86.61988872813117
 31
0.0
  0
LINE
  5
90
  8
___-1
  6
CONTINUOUS
 62
    30
 10
8705.617068538153
 20
46.61988872813117
 30
0.0
 11
8705.617068538153
 21
86.61988872813117
 31
0.0
  0
LINE
  5
91
  8
___-1
  6
CONTINUOUS
 62
    30
 10
8785.617068538153
 20
86.61988872813117
 30
0.0
 11
8705.617068538153
 21
86.61988872813117
 31
0.0
  0
CIRCLE
  5
92
  8
___-1
  6
CONTINUOUS
 62
    30
 10
8785.617068538153
 20
86.61988872813117
 30
0.0
 40
3.24786376953125
  0
CIRCLE
  5
93
  8
___-1
  6
CONTINUOUS
 62
    30
 10
8705.617068538153
 20
86.61988872813117
 30
0.0
 40
3.24786376953125
  0
TEXT
  5
94
  8
___-1
 62
    30
 10
8723.706261246487
 20
95.0282220614645
 30
0.0
 40
25.83821614583336
  1
80
  7
MEIRYO_UI
 11
8723.706261246487
 21
120.8664382072979
 31
0.0
 73
     3
  0
LINE
  5
95
  8
___-1
  6
CONTINUOUS
 62
    30
 10
8871.992149642669
 20
-342.1812162593055
 30
0.0
 11
8831.992149642669
 21
-342.1812162593055
 31
0.0
  0
LINE
  5
96
  8
___-1
  6
CONTINUOUS
 62
    30
 10
8871.992149642669
 20
-422.1812162593055
 30
0.0
 11
8831.992149642669
 21
-422.1812162593055
 31
0.0
  0
LINE
  5
97
  8
___-1
  6
CONTINUOUS
 62
    30
 10
8831.992149642669
 20
-342.1812162593055
 30
0.0
 11
8831.992149642669
 21
-422.1812162593055
 31
0.0
  0
CIRCLE
  5
98
  8
___-1
  6
CONTINUOUS
 62
    30
 10
8831.992149642669
 20
-342.1812162593055
 30
0.0
 40
3.24786376953125
  0
CIRCLE
  5
99
  8
___-1
  6
CONTINUOUS
 62
    30
 10
8831.992149642669
 20
-422.1812162593055
 30
0.0
 40
3.24786376953125
  0
TEXT
  5
9A
  8
___-1
 62
    30
 10
8823.583816309336
 20
-404.0920235509722
 30
0.0
 40
25.83821614583336
  1
80
 50
90.0
  7
MEIRYO_UI
 11
8797.745600163502
 21
-404.0920235509722
 31
0.0
 73
     3
  0
POLYLINE
  5
9B
  8
___-1
  6
CONTINUOUS
 62
     1
 66
     1
 10
0.0
 20
0.0
 30
0.0
 70
   129
  0
VERTEX
  5
9C
  8
___-1
  6
CONTINUOUS
 62
     1
 10
8537.208995404251
 20
616.6198887281312
 30
0.0
  0
VERTEX
  5
9D
  8
___-1
  6
CONTINUOUS
 62
     1
 10
10437.20899540425
 20
616.6198887281312
 30
0.0
  0
VERTEX
  5
9E
  8
___-1
  6
CONTINUOUS
 62
     1
 10
10437.20899540425
 20
-692.9166783487349
 30
0.0
  0
VERTEX
  5
9F
  8
___-1
  6
CONTINUOUS
 62
     1
 10
8537.208995404251
 20
-692.9166783487349
 30
0.0
  0
SEQEND
  5
A0
  8
___-1
  6
CONTINUOUS
 62
     1
  0
POLYLINE
  5
A1
  8
___-1
  6
CONTINUOUS
 62
     1
 66
     1
 10
0.0
 20
0.0
 30
0.0
 70
   129
  0
VERTEX
  5
A2
  8
___-1
  6
CONTINUOUS
 62
     1
 10
8916.992149642669
 20
-422.1812162593055
 30
0.0
  0
VERTEX
  5
A3
  8
___-1
  6
CONTINUOUS
 62
     1
 10
8991.992149642669
 20
-422.1812162593055
 30
0.0
  0
VERTEX
  5
A4
  8
___-1
  6
CONTINUOUS
 62
     1
 10
8991.992149642669
 20
-424.1812162593055
 30
0.0
  0
VERTEX
  5
A5
  8
___-1
  6
CONTINUOUS
 62
     1
 10
8916.992149642669
 20
-424.1812162593055
 30
0.0
  0
SEQEND
  5
A6
  8
___-1
  6
CONTINUOUS
 62
     1
  0
POLYLINE
  5
A7
  8
___-1
  6
CONTINUOUS
 62
     1
 66
     1
 10
0.0
 20
0.0
 30
0.0
 70
   129
  0
VERTEX
  5
A8
  8
___-1
  6
CONTINUOUS
 62
     1
 10
10141.99214964267
 20
-422.1812162593055
 30
0.0
  0
VERTEX
  5
A9
  8
___-1
  6
CONTINUOUS
 62
     1
 10
10216.99214964267
 20
-422.1812162593055
 30
0.0
  0
VERTEX
  5
AA
  8
___-1
  6
CONTINUOUS
 62
     1
 10
10216.99214964267
 20
-424.1812162593055
 30
0.0
  0
VERTEX
  5
AB
  8
___-1
  6
CONTINUOUS
 62
     1
 10
10141.99214964267
 20
-424.1812162593055
 30
0.0
  0
SEQEND
  5
AC
  8
___-1
  6
CONTINUOUS
 62
     1
  0
POLYLINE
  5
AD
  8
___-1
  6
CONTINUOUS
 62
     1
 66
     1
 10
0.0
 20
0.0
 30
0.0
 70
   129
  0
VERTEX
  5
AE
  8
___-1
  6
CONTINUOUS
 62
     1
 10
9529.492149642669
 20
-422.1812162593055
 30
0.0
  0
VERTEX
  5
AF
  8
___-1
  6
CONTINUOUS
 62
     1
 10
9604.492149642669
 20
-422.1812162593055
 30
0.0
  0
VERTEX
  5
B0
  8
___-1
  6
CONTINUOUS
 62
     1
 10
9604.492149642669
 20
-424.1812162593055
 30
0.0
  0
VERTEX
  5
B1
  8
___-1
  6
CONTINUOUS
 62
     1
 10
9529.492149642669
 20
-424.1812162593055
 30
0.0
  0
SEQEND
  5
B2
  8
___-1
  6
CONTINUOUS
 62
     1
  0
TEXT
  5
B3
  8
___-1
 62
     1
 10
8537.208995404251
 20
571.7465553947978
 30
0.0
 40
31.005859375
  1
POST1350
  7
MEIRYO_UI
 11
8537.208995404251
 21
602.7524147697978
 31
0.0
 73
     3
  0
VIEWPORT
  5
B4
 67
     1
  8
0
 10
128.5
 20
97.5
 30
0.0
 40
314.226
 41
222.18
 68
     1
 69
     1
1001
ACAD
1000
MVIEW
1002
{
1070
    16
1010
0.0
1020
0.0
1030
0.0
1010
0.0
1020
0.0
1030
1.0
1040
0.0
1040
222.18
1040
128.5
1040
97.5
1040
50.0
1040
0.0
1040
0.0
1070
     0
1070
   100
1070
     0
1070
     3
1070
     0
1070
     0
1070
     0
1070
     0
1040
0.0
1040
0.0
1040
0.0
1040
10.0
1040
10.0
1040
10.0
1040
10.0
1070
     0
1002
{
1002
}
1002
}
  0
ENDSEC
  0
EOF
