  0
SECTION
  2
HEADER
  9
$ACADVER
  1
AC1009
  9
$DWGCODEPAGE
  3
dos932
  9
$INSBASE
 10
0.0
 20
0.0
 30
0.0
  9
$EXTMIN
 10
-600.180480525707
 20
-1529.681129614221
 30
0.0
  9
$EXTMAX
 10
349.819519474293
 20
1220.759309528491
 30
0.0
  9
$LIMMIN
 10
0.0
 20
0.0
  9
$LIMMAX
 10
12.0
 20
9.0
  9
$ORTHOMODE
 70
     0
  9
$REGENMODE
 70
     1
  9
$FILLMODE
 70
     1
  9
$QTEXTMODE
 70
     0
  9
$MIRRTEXT
 70
     1
  9
$DRAGMODE
 70
     2
  9
$LTSCALE
 40
508.0
  9
$OSMODE
 70
    37
  9
$ATTMODE
 70
     1
  9
$TEXTSIZE
 40
0.2
  9
$TRACEWID
 40
1.0
  9
$TEXTSTYLE
  7
STANDARD
  9
$CLAYER
  8
___-1
  9
$CELTYPE
  6
BYLAYER
  9
$CECOLOR
 62
   256
  9
$DIMSCALE
 40
1.0
  9
$DIMASZ
 40
0.18
  9
$DIMEXO
 40
0.0625
  9
$DIMDLI
 40
0.38
  9
$DIMRND
 40
0.0
  9
$DIMDLE
 40
0.0
  9
$DIMEXE
 40
0.18
  9
$DIMTP
 40
0.0
  9
$DIMTM
 40
0.0
  9
$DIMTXT
 40
0.18
  9
$DIMCEN
 40
0.09
  9
$DIMTSZ
 40
0.0
  9
$DIMTOL
 70
     0
  9
$DIMLIM
 70
     0
  9
$DIMTIH
 70
     1
  9
$DIMTOH
 70
     1
  9
$DIMSE1
 70
     0
  9
$DIMSE2
 70
     0
  9
$DIMTAD
 70
     0
  9
$DIMZIN
 70
     0
  9
$DIMBLK
  1

  9
$DIMASO
 70
     1
  9
$DIMSHO
 70
     1
  9
$DIMPOST
  1

  9
$DIMAPOST
  1

  9
$DIMALT
 70
     0
  9
$DIMALTD
 70
     2
  9
$DIMALTF
 40
25.4
  9
$DIMLFAC
 40
1.0
  9
$DIMTOFL
 70
     0
  9
$DIMTVP
 40
0.0
  9
$DIMTIX
 70
     0
  9
$DIMSOXD
 70
     0
  9
$DIMSAH
 70
     0
  9
$DIMBLK1
  1

  9
$DIMBLK2
  1

  9
$DIMSTYLE
  2
STANDARD
  9
$DIMCLRD
 70
     0
  9
$DIMCLRE
 70
     0
  9
$DIMCLRT
 70
     0
  9
$DIMTFAC
 40
1.0
  9
$DIMGAP
 40
0.09
  9
$LUNITS
 70
     2
  9
$LUPREC
 70
     2
  9
$SKETCHINC
 40
0.1
  9
$FILLETRAD
 40
0.5
  9
$AUNITS
 70
     0
  9
$AUPREC
 70
     2
  9
$MENU
  1
.
  9
$ELEVATION
 40
0.0
  9
$PELEVATION
 40
0.0
  9
$THICKNESS
 40
0.0
  9
$LIMCHECK
 70
     0
  9
$CHAMFERA
 40
0.0
  9
$CHAMFERB
 40
0.0
  9
$SKPOLY
 70
     0
  9
$TDCREATE
 40
2459473.320167234
  9
$TDUPDATE
 40
2459473.320183275
  9
$TDINDWG
 40
0.0000000116
  9
$TDUSRTIMER
 40
0.0000000116
  9
$USRTIMER
 70
     1
  9
$ANGBASE
 50
0.0
  9
$ANGDIR
 70
     0
  9
$PDMODE
 70
     1
  9
$PDSIZE
 40
-2.0
  9
$PLINEWID
 40
0.0
  9
$COORDS
 70
     1
  9
$SPLFRAME
 70
     0
  9
$SPLINETYPE
 70
     6
  9
$SPLINESEGS
 70
     8
  9
$ATTDIA
 70
     0
  9
$ATTREQ
 70
     1
  9
$HANDLING
 70
     1
  9
$HANDSEED
  5
138
  9
$SURFTAB1
 70
     6
  9
$SURFTAB2
 70
     6
  9
$SURFTYPE
 70
     6
  9
$SURFU
 70
     6
  9
$SURFV
 70
     6
  9
$UCSNAME
  2

  9
$UCSORG
 10
0.0
 20
0.0
 30
0.0
  9
$UCSXDIR
 10
1.0
 20
0.0
 30
0.0
  9
$UCSYDIR
 10
0.0
 20
1.0
 30
0.0
  9
$PUCSNAME
  2

  9
$PUCSORG
 10
0.0
 20
0.0
 30
0.0
  9
$PUCSXDIR
 10
1.0
 20
0.0
 30
0.0
  9
$PUCSYDIR
 10
0.0
 20
1.0
 30
0.0
  9
$USERI1
 70
     0
  9
$USERI2
 70
     0
  9
$USERI3
 70
     0
  9
$USERI4
 70
     0
  9
$USERI5
 70
     0
  9
$USERR1
 40
0.0
  9
$USERR2
 40
0.0
  9
$USERR3
 40
0.0
  9
$USERR4
 40
0.0
  9
$USERR5
 40
0.0
  9
$WORLDVIEW
 70
     1
  9
$SHADEDGE
 70
     3
  9
$SHADEDIF
 70
    70
  9
$TILEMODE
 70
     1
  9
$MAXACTVP
 70
    64
  9
$PLIMCHECK
 70
     0
  9
$PEXTMIN
 10
1.000000000000000E+20
 20
1.000000000000000E+20
 30
1.000000000000000E+20
  9
$PEXTMAX
 10
-1.000000000000000E+20
 20
-1.000000000000000E+20
 30
-1.000000000000000E+20
  9
$PLIMMIN
 10
-20.0
 20
-7.5
  9
$PLIMMAX
 10
277.0
 20
202.5
  9
$UNITMODE
 70
     0
  9
$VISRETAIN
 70
     1
  9
$PLINEGEN
 70
     0
  9
$PSLTSCALE
 70
     1
  0
ENDSEC
  0
SECTION
  2
TABLES
  0
TABLE
  2
VPORT
 70
     1
  0
VPORT
  2
*ACTIVE
 70
     0
 10
0.0
 20
0.0
 11
1.0
 21
1.0
 12
-125.180480525707
 22
-154.4609100428654
 13
0.0
 23
0.0
 14
0.5
 24
0.5
 15
0.5
 25
0.5
 16
0.0
 26
0.0
 36
1.0
 17
0.0
 27
0.0
 37
0.0
 40
2750.440439142712
 41
0.3453992264221168
 42
2000.0
 43
0.0
 44
0.0
 50
0.0
 51
0.0
 71
     0
 72
   100
 73
     1
 74
     3
 75
     0
 76
     0
 77
     0
 78
     0
  0
ENDTAB
  0
TABLE
  2
LTYPE
 70
     1
  0
LTYPE
  2
CONTINUOUS
 70
     0
  3
Solid line
 72
    65
 73
     0
 40
0.0
  0
ENDTAB
  0
TABLE
  2
LAYER
 70
     2
  0
LAYER
  2
0
 70
     0
 62
     7
  6
CONTINUOUS
  0
LAYER
  2
___-1
 70
     0
 62
     7
  6
CONTINUOUS
  0
ENDTAB
  0
TABLE
  2
STYLE
 70
     2
  0
STYLE
  2
STANDARD
 70
     0
 40
0.0
 41
1.0
 50
0.0
 71
     0
 42
0.2
  3
txt
  4
BIGFONT.SHX
  0
STYLE
  2
MEIRYO_UI
 70
     0
 40
0.0
 41
1.0
 50
0.0
 71
     0
 42
0.2
  3

  4
Meiryo UI
  0
ENDTAB
  0
TABLE
  2
VIEW
 70
     0
  0
ENDTAB
  0
TABLE
  2
UCS
 70
     0
  0
ENDTAB
  0
TABLE
  2
APPID
 70
     2
  0
APPID
  2
ACAD
 70
     0
  0
APPID
  2
ACAECLAYERSTANDARD
 70
     0
  0
ENDTAB
  0
TABLE
  2
DIMSTYLE
 70
     1
  0
DIMSTYLE
  2
STANDARD
 70
     0
  3

  4

  5

  6

  7

 40
1.0
 41
0.18
 42
0.0625
 43
0.38
 44
0.18
 45
0.0
 46
0.0
 47
0.0
 48
0.0
140
0.18
141
0.09
142
0.0
143
25.4
144
1.0
145
0.0
146
1.0
147
0.09
 71
     0
 72
     0
 73
     1
 74
     1
 75
     0
 76
     0
 77
     0
 78
     0
170
     0
171
     2
172
     0
173
     0
174
     0
175
     0
176
     0
177
     0
178
     0
  0
ENDTAB
  0
ENDSEC
  0
SECTION
  2
BLOCKS
  0
BLOCK
  8
0
  2
$MODEL_SPACE
 70
     0
 10
0.0
 20
0.0
 30
0.0
  3
$MODEL_SPACE
  1

  0
ENDBLK
  5
21
  8
0
  0
BLOCK
 67
     1
  8
0
  2
$PAPER_SPACE
 70
     0
 10
0.0
 20
0.0
 30
0.0
  3
$PAPER_SPACE
  1

  0
ENDBLK
  5
1D
 67
     1
  8
0
  0
ENDSEC
  0
SECTION
  2
ENTITIES
  0
POLYLINE
  5
72
  8
___-1
  6
CONTINUOUS
 62
    30
 66
     1
 10
0.0
 20
0.0
 30
0.0
 70
   129
  0
VERTEX
  5
73
  8
___-1
  6
CONTINUOUS
 62
    30
 10
-600.180480525707
 20
1220.759309528491
 30
0.0
  0
VERTEX
  5
74
  8
___-1
  6
CONTINUOUS
 62
    30
 10
349.819519474293
 20
1220.759309528491
 30
0.0
  0
VERTEX
  5
75
  8
___-1
  6
CONTINUOUS
 62
    30
 10
349.819519474293
 20
-1529.681129614221
 30
0.0
  0
VERTEX
  5
76
  8
___-1
  6
CONTINUOUS
 62
    30
 10
-600.180480525707
 20
-1529.681129614221
 30
0.0
  0
SEQEND
  5
77
  8
___-1
  6
CONTINUOUS
 62
    30
  0
POLYLINE
  5
78
  8
___-1
  6
CONTINUOUS
 62
    30
 66
     1
 10
0.0
 20
0.0
 30
0.0
 70
   129
  0
VERTEX
  5
79
  8
___-1
  6
CONTINUOUS
 62
    30
 10
-240.180480525707
 20
453.2581487455893
 30
0.0
  0
VERTEX
  5
7A
  8
___-1
  6
CONTINUOUS
 62
    30
 10
-10.18048052570703
 20
453.2581487455893
 30
0.0
  0
VERTEX
  5
7B
  8
___-1
  6
CONTINUOUS
 62
    30
 10
-10.18048052570703
 20
-921.7418512544104
 30
0.0
  0
VERTEX
  5
7C
  8
___-1
  6
CONTINUOUS
 62
    30
 10
-240.180480525707
 20
-921.7418512544104
 30
0.0
  0
SEQEND
  5
7D
  8
___-1
  6
CONTINUOUS
 62
    30
  0
POLYLINE
  5
7E
  8
___-1
  6
CONTINUOUS
 62
    30
 66
     1
 10
0.0
 20
0.0
 30
0.0
 70
   129
  0
VERTEX
  5
7F
  8
___-1
  6
CONTINUOUS
 62
    30
 10
-240.180480525707
 20
453.2581487455893
 30
0.0
  0
VERTEX
  5
80
  8
___-1
  6
CONTINUOUS
 62
    30
 10
-10.18048052570703
 20
453.2581487455893
 30
0.0
  0
VERTEX
  5
81
  8
___-1
  6
CONTINUOUS
 62
    30
 10
-10.18048052570703
 20
435.2581487455893
 30
0.0
  0
VERTEX
  5
82
  8
___-1
  6
CONTINUOUS
 62
    30
 10
-240.180480525707
 20
435.2581487455893
 30
0.0
  0
SEQEND
  5
83
  8
___-1
  6
CONTINUOUS
 62
    30
  0
POLYLINE
  5
84
  8
___-1
  6
CONTINUOUS
 62
    30
 66
     1
 10
0.0
 20
0.0
 30
0.0
 70
   129
  0
VERTEX
  5
85
  8
___-1
  6
CONTINUOUS
 62
    30
 10
-257.680480525707
 20
-921.7418512544104
 30
0.0
  0
VERTEX
  5
86
  8
___-1
  6
CONTINUOUS
 62
    30
 10
7.319519474292974
 20
-921.7418512544104
 30
0.0
  0
VERTEX
  5
87
  8
___-1
  6
CONTINUOUS
 62
    30
 10
7.319519474292974
 20
-946.7418512544104
 30
0.0
  0
VERTEX
  5
88
  8
___-1
  6
CONTINUOUS
 62
    30
 10
-257.680480525707
 20
-946.7418512544104
 30
0.0
  0
SEQEND
  5
89
  8
___-1
  6
CONTINUOUS
 62
    30
  0
POLYLINE
  5
8A
  8
___-1
  6
CONTINUOUS
 62
    30
 66
     1
 10
0.0
 20
0.0
 30
0.0
 70
   129
  0
VERTEX
  5
8B
  8
___-1
  6
CONTINUOUS
 62
    30
 10
7.319519474292974
 20
-1252.760867114769
 30
0.0
  0
VERTEX
  5
8C
  8
___-1
  6
CONTINUOUS
 62
    30
 10
6.681495758359063
 20
-1265.748138208436
 30
0.0
  0
VERTEX
  5
8D
  8
___-1
  6
CONTINUOUS
 62
    30
 10
4.773569127721004
 20
-1278.610334781906
 30
0.0
  0
VERTEX
  5
8E
  8
___-1
  6
CONTINUOUS
 62
    30
 10
1.614113958810663
 20
-1291.223586850985
 30
0.0
  0
VERTEX
  5
8F
  8
___-1
  6
CONTINUOUS
 62
    30
 10
-2.766442467961539
 20
-1303.466421903143
 30
0.0
  0
VERTEX
  5
90
  8
___-1
  6
CONTINUOUS
 62
    30
 10
-8.325912999549985
 20
-1315.220934744214
 30
0.0
  0
VERTEX
  5
91
  8
___-1
  6
CONTINUOUS
 62
    30
 10
-15.01075689561978
 20
-1326.373922989866
 30
0.0
  0
VERTEX
  5
92
  8
___-1
  6
CONTINUOUS
 62
    30
 10
-22.75659545514439
 20
-1336.817977266452
 30
0.0
  0
VERTEX
  5
93
  8
___-1
  6
CONTINUOUS
 62
    30
 10
-31.48883201848949
 20
-1346.452515621986
 30
0.0
  0
VERTEX
  5
94
  8
___-1
  6
CONTINUOUS
 62
    30
 10
-41.12337037402399
 20
-1355.184752185331
 30
0.0
  0
VERTEX
  5
95
  8
___-1
  6
CONTINUOUS
 62
    30
 10
-51.56742465060974
 20
-1362.930590744856
 30
0.0
  0
VERTEX
  5
96
  8
___-1
  6
CONTINUOUS
 62
    30
 10
-62.72041289626234
 20
-1369.615434640926
 30
0.0
  0
VERTEX
  5
97
  8
___-1
  6
CONTINUOUS
 62
    30
 10
-74.47492573733263
 20
-1375.174905172514
 30
0.0
  0
VERTEX
  5
98
  8
___-1
  6
CONTINUOUS
 62
    30
 10
-86.71776078949077
 20
-1379.555461599286
 30
0.0
  0
VERTEX
  5
99
  8
___-1
  6
CONTINUOUS
 62
    30
 10
-99.33101285857003
 20
-1382.714916768197
 30
0.0
  0
VERTEX
  5
9A
  8
___-1
  6
CONTINUOUS
 62
    30
 10
-112.1932094320402
 20
-1384.622843398835
 30
0.0
  0
VERTEX
  5
9B
  8
___-1
  6
CONTINUOUS
 62
    30
 10
-125.180480525707
 20
-1385.260867114769
 30
0.0
  0
VERTEX
  5
9C
  8
___-1
  6
CONTINUOUS
 62
    30
 10
-138.1677516193738
 20
-1384.622843398835
 30
0.0
  0
VERTEX
  5
9D
  8
___-1
  6
CONTINUOUS
 62
    30
 10
-151.029948192844
 20
-1382.714916768197
 30
0.0
  0
VERTEX
  5
9E
  8
___-1
  6
CONTINUOUS
 62
    30
 10
-163.6432002619233
 20
-1379.555461599286
 30
0.0
  0
VERTEX
  5
9F
  8
___-1
  6
CONTINUOUS
 62
    30
 10
-175.8860353140814
 20
-1375.174905172514
 30
0.0
  0
VERTEX
  5
A0
  8
___-1
  6
CONTINUOUS
 62
    30
 10
-187.6405481551517
 20
-1369.615434640926
 30
0.0
  0
VERTEX
  5
A1
  8
___-1
  6
CONTINUOUS
 62
    30
 10
-198.7935364008043
 20
-1362.930590744856
 30
0.0
  0
VERTEX
  5
A2
  8
___-1
  6
CONTINUOUS
 62
    30
 10
-209.2375906773901
 20
-1355.184752185331
 30
0.0
  0
VERTEX
  5
A3
  8
___-1
  6
CONTINUOUS
 62
    30
 10
-218.8721290329246
 20
-1346.452515621986
 30
0.0
  0
VERTEX
  5
A4
  8
___-1
  6
CONTINUOUS
 62
    30
 10
-227.6043655962696
 20
-1336.817977266452
 30
0.0
  0
VERTEX
  5
A5
  8
___-1
  6
CONTINUOUS
 62
    30
 10
-235.3502041557943
 20
-1326.373922989866
 30
0.0
  0
VERTEX
  5
A6
  8
___-1
  6
CONTINUOUS
 62
    30
 10
-242.0350480518641
 20
-1315.220934744214
 30
0.0
  0
VERTEX
  5
A7
  8
___-1
  6
CONTINUOUS
 62
    30
 10
-247.5945185834525
 20
-1303.466421903143
 30
0.0
  0
VERTEX
  5
A8
  8
___-1
  6
CONTINUOUS
 62
    30
 10
-251.9750750102247
 20
-1291.223586850985
 30
0.0
  0
VERTEX
  5
A9
  8
___-1
  6
CONTINUOUS
 62
    30
 10
-255.1345301791351
 20
-1278.610334781906
 30
0.0
  0
VERTEX
  5
AA
  8
___-1
  6
CONTINUOUS
 62
    30
 10
-257.0424568097731
 20
-1265.748138208436
 30
0.0
  0
VERTEX
  5
AB
  8
___-1
  6
CONTINUOUS
 62
    30
 10
-257.680480525707
 20
-1252.760867114769
 30
0.0
  0
VERTEX
  5
AC
  8
___-1
  6
CONTINUOUS
 62
    30
 10
-257.0424568097731
 20
-1239.773596021102
 30
0.0
  0
VERTEX
  5
AD
  8
___-1
  6
CONTINUOUS
 62
    30
 10
-255.1345301791351
 20
-1226.911399447632
 30
0.0
  0
VERTEX
  5
AE
  8
___-1
  6
CONTINUOUS
 62
    30
 10
-251.9750750102247
 20
-1214.298147378553
 30
0.0
  0
VERTEX
  5
AF
  8
___-1
  6
CONTINUOUS
 62
    30
 10
-247.5945185834525
 20
-1202.055312326394
 30
0.0
  0
VERTEX
  5
B0
  8
___-1
  6
CONTINUOUS
 62
    30
 10
-242.0350480518641
 20
-1190.300799485324
 30
0.0
  0
VERTEX
  5
B1
  8
___-1
  6
CONTINUOUS
 62
    30
 10
-235.3502041557943
 20
-1179.147811239672
 30
0.0
  0
VERTEX
  5
B2
  8
___-1
  6
CONTINUOUS
 62
    30
 10
-227.6043655962696
 20
-1168.703756963086
 30
0.0
  0
VERTEX
  5
B3
  8
___-1
  6
CONTINUOUS
 62
    30
 10
-218.8721290329246
 20
-1159.069218607551
 30
0.0
  0
VERTEX
  5
B4
  8
___-1
  6
CONTINUOUS
 62
    30
 10
-209.2375906773901
 20
-1150.336982044206
 30
0.0
  0
VERTEX
  5
B5
  8
___-1
  6
CONTINUOUS
 62
    30
 10
-198.7935364008043
 20
-1142.591143484682
 30
0.0
  0
VERTEX
  5
B6
  8
___-1
  6
CONTINUOUS
 62
    30
 10
-187.6405481551517
 20
-1135.906299588612
 30
0.0
  0
VERTEX
  5
B7
  8
___-1
  6
CONTINUOUS
 62
    30
 10
-175.8860353140814
 20
-1130.346829057023
 30
0.0
  0
VERTEX
  5
B8
  8
___-1
  6
CONTINUOUS
 62
    30
 10
-163.6432002619233
 20
-1125.966272630251
 30
0.0
  0
VERTEX
  5
B9
  8
___-1
  6
CONTINUOUS
 62
    30
 10
-151.029948192844
 20
-1122.806817461341
 30
0.0
  0
VERTEX
  5
BA
  8
___-1
  6
CONTINUOUS
 62
    30
 10
-138.1677516193738
 20
-1120.898890830703
 30
0.0
  0
VERTEX
  5
BB
  8
___-1
  6
CONTINUOUS
 62
    30
 10
-125.180480525707
 20
-1120.260867114769
 30
0.0
  0
VERTEX
  5
BC
  8
___-1
  6
CONTINUOUS
 62
    30
 10
-112.1932094320402
 20
-1120.898890830703
 30
0.0
  0
VERTEX
  5
BD
  8
___-1
  6
CONTINUOUS
 62
    30
 10
-99.33101285857003
 20
-1122.806817461341
 30
0.0
  0
VERTEX
  5
BE
  8
___-1
  6
CONTINUOUS
 62
    30
 10
-86.71776078949077
 20
-1125.966272630251
 30
0.0
  0
VERTEX
  5
BF
  8
___-1
  6
CONTINUOUS
 62
    30
 10
-74.47492573733263
 20
-1130.346829057023
 30
0.0
  0
VERTEX
  5
C0
  8
___-1
  6
CONTINUOUS
 62
    30
 10
-62.72041289626234
 20
-1135.906299588612
 30
0.0
  0
VERTEX
  5
C1
  8
___-1
  6
CONTINUOUS
 62
    30
 10
-51.56742465060974
 20
-1142.591143484682
 30
0.0
  0
VERTEX
  5
C2
  8
___-1
  6
CONTINUOUS
 62
    30
 10
-41.12337037402399
 20
-1150.336982044206
 30
0.0
  0
VERTEX
  5
C3
  8
___-1
  6
CONTINUOUS
 62
    30
 10
-31.48883201848949
 20
-1159.069218607551
 30
0.0
  0
VERTEX
  5
C4
  8
___-1
  6
CONTINUOUS
 62
    30
 10
-22.75659545514439
 20
-1168.703756963086
 30
0.0
  0
VERTEX
  5
C5
  8
___-1
  6
CONTINUOUS
 62
    30
 10
-15.01075689561978
 20
-1179.147811239672
 30
0.0
  0
VERTEX
  5
C6
  8
___-1
  6
CONTINUOUS
 62
    30
 10
-8.325912999549985
 20
-1190.300799485324
 30
0.0
  0
VERTEX
  5
C7
  8
___-1
  6
CONTINUOUS
 62
    30
 10
-2.766442467961539
 20
-1202.055312326394
 30
0.0
  0
VERTEX
  5
C8
  8
___-1
  6
CONTINUOUS
 62
    30
 10
1.614113958810663
 20
-1214.298147378553
 30
0.0
  0
VERTEX
  5
C9
  8
___-1
  6
CONTINUOUS
 62
    30
 10
4.773569127721004
 20
-1226.911399447632
 30
0.0
  0
VERTEX
  5
CA
  8
___-1
  6
CONTINUOUS
 62
    30
 10
6.681495758359063
 20
-1239.773596021102
 30
0.0
  0
SEQEND
  5
CB
  8
___-1
  6
CONTINUOUS
 62
    30
  0
POLYLINE
  5
CC
  8
___-1
  6
CONTINUOUS
 62
    30
 66
     1
 10
0.0
 20
0.0
 30
0.0
 70
   129
  0
VERTEX
  5
CD
  8
___-1
  6
CONTINUOUS
 62
    30
 10
-10.18048052570703
 20
751.9825679071354
 30
0.0
  0
VERTEX
  5
CE
  8
___-1
  6
CONTINUOUS
 62
    30
 10
-10.73423695840438
 20
740.710596769236
 30
0.0
  0
VERTEX
  5
CF
  8
___-1
  6
CONTINUOUS
 62
    30
 10
-12.39017327933553
 20
729.5471808752807
 30
0.0
  0
VERTEX
  5
D0
  8
___-1
  6
CONTINUOUS
 62
    30
 10
-15.13234191650299
 20
718.5998300228722
 30
0.0
  0
VERTEX
  5
D1
  8
___-1
  6
CONTINUOUS
 62
    30
 10
-18.93433428690905
 20
707.97397318515
 30
0.0
  0
VERTEX
  5
D2
  8
___-1
  6
CONTINUOUS
 62
    30
 10
-23.7595351256462
 20
697.7719431721457
 30
0.0
  0
VERTEX
  5
D3
  8
___-1
  6
CONTINUOUS
 62
    30
 10
-29.56147511091433
 20
688.0919911098811
 30
0.0
  0
VERTEX
  5
D4
  8
___-1
  6
CONTINUOUS
 62
    30
 10
-36.28427838899228
 20
679.0273402283161
 30
0.0
  0
VERTEX
  5
D5
  8
___-1
  6
CONTINUOUS
 62
    30
 10
-43.86320068925407
 20
670.6652880706824
 30
0.0
  0
VERTEX
  5
D6
  8
___-1
  6
CONTINUOUS
 62
    30
 10
-52.2252528468878
 20
663.0863657704206
 30
0.0
  0
VERTEX
  5
D7
  8
___-1
  6
CONTINUOUS
 62
    30
 10
-61.28990372845278
 20
656.3635624923427
 30
0.0
  0
VERTEX
  5
D8
  8
___-1
  6
CONTINUOUS
 62
    30
 10
-70.9698557907173
 20
650.5616225070745
 30
0.0
  0
VERTEX
  5
D9
  8
___-1
  6
CONTINUOUS
 62
    30
 10
-81.1718858037217
 20
645.7364216683374
 30
0.0
  0
VERTEX
  5
DA
  8
___-1
  6
CONTINUOUS
 62
    30
 10
-91.79774264144386
 20
641.9344292979314
 30
0.0
  0
VERTEX
  5
DB
  8
___-1
  6
CONTINUOUS
 62
    30
 10
-102.7450934938523
 20
639.1922606607638
 30
0.0
  0
VERTEX
  5
DC
  8
___-1
  6
CONTINUOUS
 62
    30
 10
-113.9085093878076
 20
637.5363243398327
 30
0.0
  0
VERTEX
  5
DD
  8
___-1
  6
CONTINUOUS
 62
    30
 10
-125.180480525707
 20
636.9825679071354
 30
0.0
  0
VERTEX
  5
DE
  8
___-1
  6
CONTINUOUS
 62
    30
 10
-136.4524516636065
 20
637.5363243398327
 30
0.0
  0
VERTEX
  5
DF
  8
___-1
  6
CONTINUOUS
 62
    30
 10
-147.6158675575618
 20
639.1922606607638
 30
0.0
  0
VERTEX
  5
E0
  8
___-1
  6
CONTINUOUS
 62
    30
 10
-158.5632184099702
 20
641.9344292979314
 30
0.0
  0
VERTEX
  5
E1
  8
___-1
  6
CONTINUOUS
 62
    30
 10
-169.1890752476924
 20
645.7364216683374
 30
0.0
  0
VERTEX
  5
E2
  8
___-1
  6
CONTINUOUS
 62
    30
 10
-179.3911052606967
 20
650.5616225070745
 30
0.0
  0
VERTEX
  5
E3
  8
___-1
  6
CONTINUOUS
 62
    30
 10
-189.0710573229613
 20
656.3635624923427
 30
0.0
  0
VERTEX
  5
E4
  8
___-1
  6
CONTINUOUS
 62
    30
 10
-198.1357082045263
 20
663.0863657704206
 30
0.0
  0
VERTEX
  5
E5
  8
___-1
  6
CONTINUOUS
 62
    30
 10
-206.49776036216
 20
670.6652880706824
 30
0.0
  0
VERTEX
  5
E6
  8
___-1
  6
CONTINUOUS
 62
    30
 10
-214.0766826624218
 20
679.0273402283161
 30
0.0
  0
VERTEX
  5
E7
  8
___-1
  6
CONTINUOUS
 62
    30
 10
-220.7994859404997
 20
688.0919911098811
 30
0.0
  0
VERTEX
  5
E8
  8
___-1
  6
CONTINUOUS
 62
    30
 10
-226.6014259257678
 20
697.7719431721457
 30
0.0
  0
VERTEX
  5
E9
  8
___-1
  6
CONTINUOUS
 62
    30
 10
-231.426626764505
 20
707.97397318515
 30
0.0
  0
VERTEX
  5
EA
  8
___-1
  6
CONTINUOUS
 62
    30
 10
-235.2286191349111
 20
718.5998300228722
 30
0.0
  0
VERTEX
  5
EB
  8
___-1
  6
CONTINUOUS
 62
    30
 10
-237.9707877720785
 20
729.5471808752807
 30
0.0
  0
VERTEX
  5
EC
  8
___-1
  6
CONTINUOUS
 62
    30
 10
-239.6267240930097
 20
740.710596769236
 30
0.0
  0
VERTEX
  5
ED
  8
___-1
  6
CONTINUOUS
 62
    30
 10
-240.180480525707
 20
751.9825679071354
 30
0.0
  0
VERTEX
  5
EE
  8
___-1
  6
CONTINUOUS
 62
    30
 10
-239.6267240930097
 20
763.2545390450348
 30
0.0
  0
VERTEX
  5
EF
  8
___-1
  6
CONTINUOUS
 62
    30
 10
-237.9707877720785
 20
774.4179549389901
 30
0.0
  0
VERTEX
  5
F0
  8
___-1
  6
CONTINUOUS
 62
    30
 10
-235.2286191349111
 20
785.3653057913986
 30
0.0
  0
VERTEX
  5
F1
  8
___-1
  6
CONTINUOUS
 62
    30
 10
-231.426626764505
 20
795.9911626291207
 30
0.0
  0
VERTEX
  5
F2
  8
___-1
  6
CONTINUOUS
 62
    30
 10
-226.6014259257678
 20
806.193192642125
 30
0.0
  0
VERTEX
  5
F3
  8
___-1
  6
CONTINUOUS
 62
    30
 10
-220.7994859404997
 20
815.8731447043897
 30
0.0
  0
VERTEX
  5
F4
  8
___-1
  6
CONTINUOUS
 62
    30
 10
-214.0766826624218
 20
824.9377955859546
 30
0.0
  0
VERTEX
  5
F5
  8
___-1
  6
CONTINUOUS
 62
    30
 10
-206.49776036216
 20
833.2998477435883
 30
0.0
  0
VERTEX
  5
F6
  8
___-1
  6
CONTINUOUS
 62
    30
 10
-198.1357082045263
 20
840.8787700438502
 30
0.0
  0
VERTEX
  5
F7
  8
___-1
  6
CONTINUOUS
 62
    30
 10
-189.0710573229613
 20
847.6015733219281
 30
0.0
  0
VERTEX
  5
F8
  8
___-1
  6
CONTINUOUS
 62
    30
 10
-179.3911052606967
 20
853.4035133071962
 30
0.0
  0
VERTEX
  5
F9
  8
___-1
  6
CONTINUOUS
 62
    30
 10
-169.1890752476924
 20
858.2287141459334
 30
0.0
  0
VERTEX
  5
FA
  8
___-1
  6
CONTINUOUS
 62
    30
 10
-158.5632184099702
 20
862.0307065163394
 30
0.0
  0
VERTEX
  5
FB
  8
___-1
  6
CONTINUOUS
 62
    30
 10
-147.6158675575618
 20
864.7728751535069
 30
0.0
  0
VERTEX
  5
FC
  8
___-1
  6
CONTINUOUS
 62
    30
 10
-136.4524516636065
 20
866.428811474438
 30
0.0
  0
VERTEX
  5
FD
  8
___-1
  6
CONTINUOUS
 62
    30
 10
-125.180480525707
 20
866.9825679071354
 30
0.0
  0
VERTEX
  5
FE
  8
___-1
  6
CONTINUOUS
 62
    30
 10
-113.9085093878076
 20
866.428811474438
 30
0.0
  0
VERTEX
  5
FF
  8
___-1
  6
CONTINUOUS
 62
    30
 10
-102.7450934938523
 20
864.7728751535069
 30
0.0
  0
VERTEX
  5
100
  8
___-1
  6
CONTINUOUS
 62
    30
 10
-91.79774264144386
 20
862.0307065163394
 30
0.0
  0
VERTEX
  5
101
  8
___-1
  6
CONTINUOUS
 62
    30
 10
-81.1718858037217
 20
858.2287141459334
 30
0.0
  0
VERTEX
  5
102
  8
___-1
  6
CONTINUOUS
 62
    30
 10
-70.9698557907173
 20
853.4035133071962
 30
0.0
  0
VERTEX
  5
103
  8
___-1
  6
CONTINUOUS
 62
    30
 10
-61.28990372845278
 20
847.6015733219281
 30
0.0
  0
VERTEX
  5
104
  8
___-1
  6
CONTINUOUS
 62
    30
 10
-52.2252528468878
 20
840.8787700438502
 30
0.0
  0
VERTEX
  5
105
  8
___-1
  6
CONTINUOUS
 62
    30
 10
-43.86320068925407
 20
833.2998477435883
 30
0.0
  0
VERTEX
  5
106
  8
___-1
  6
CONTINUOUS
 62
    30
 10
-36.28427838899228
 20
824.9377955859546
 30
0.0
  0
VERTEX
  5
107
  8
___-1
  6
CONTINUOUS
 62
    30
 10
-29.56147511091433
 20
815.8731447043897
 30
0.0
  0
VERTEX
  5
108
  8
___-1
  6
CONTINUOUS
 62
    30
 10
-23.7595351256462
 20
806.193192642125
 30
0.0
  0
VERTEX
  5
109
  8
___-1
  6
CONTINUOUS
 62
    30
 10
-18.93433428690905
 20
795.9911626291207
 30
0.0
  0
VERTEX
  5
10A
  8
___-1
  6
CONTINUOUS
 62
    30
 10
-15.13234191650299
 20
785.3653057913986
 30
0.0
  0
VERTEX
  5
10B
  8
___-1
  6
CONTINUOUS
 62
    30
 10
-12.39017327933553
 20
774.4179549389901
 30
0.0
  0
VERTEX
  5
10C
  8
___-1
  6
CONTINUOUS
 62
    30
 10
-10.73423695840438
 20
763.2545390450348
 30
0.0
  0
SEQEND
  5
10D
  8
___-1
  6
CONTINUOUS
 62
    30
  0
TEXT
  5
10E
  8
___-1
 62
    30
 10
-600.180480525707
 20
1160.928198417379
 30
0.0
 40
41.34114583333334
  1
OBELISK1400
  7
MEIRYO_UI
 11
-600.180480525707
 21
1202.269344250713
 31
0.0
 73
     3
  0
LINE
  5
10F
  8
___-1
  6
CONTINUOUS
 62
    30
 10
-240.180480525707
 20
503.2581487455893
 30
0.0
 11
-240.180480525707
 21
553.2581487455893
 31
0.0
  0
LINE
  5
110
  8
___-1
  6
CONTINUOUS
 62
    30
 10
-10.18048052570703
 20
503.2581487455893
 30
0.0
 11
-10.18048052570703
 21
553.2581487455893
 31
0.0
  0
LINE
  5
111
  8
___-1
  6
CONTINUOUS
 62
    30
 10
-240.180480525707
 20
553.2581487455893
 30
0.0
 11
-10.18048052570703
 21
553.2581487455893
 31
0.0
  0
CIRCLE
  5
112
  8
___-1
  6
CONTINUOUS
 62
    30
 10
-240.180480525707
 20
553.2581487455893
 30
0.0
 40
6.4957275390625
  0
CIRCLE
  5
113
  8
___-1
  6
CONTINUOUS
 62
    30
 10
-10.18048052570703
 20
553.2581487455893
 30
0.0
 40
6.4957275390625
  0
TEXT
  5
114
  8
___-1
 62
    30
 10
-177.766418025707
 20
567.1114820789227
 30
0.0
 40
41.34114583333334
  1
230
  7
MEIRYO_UI
 11
-177.766418025707
 21
608.452627912256
 31
0.0
 73
     3
  0
LINE
  5
115
  8
___-1
  6
CONTINUOUS
 62
    30
 10
-307.680480525707
 20
-946.7418512544104
 30
0.0
 11
-357.680480525707
 21
-946.7418512544104
 31
0.0
  0
LINE
  5
116
  8
___-1
  6
CONTINUOUS
 62
    30
 10
-307.680480525707
 20
453.2581487455893
 30
0.0
 11
-357.680480525707
 21
453.2581487455893
 31
0.0
  0
LINE
  5
117
  8
___-1
  6
CONTINUOUS
 62
    30
 10
-357.680480525707
 20
-946.7418512544104
 30
0.0
 11
-357.680480525707
 21
453.2581487455893
 31
0.0
  0
CIRCLE
  5
118
  8
___-1
  6
CONTINUOUS
 62
    30
 10
-357.680480525707
 20
-946.7418512544104
 30
0.0
 40
6.4957275390625
  0
CIRCLE
  5
119
  8
___-1
  6
CONTINUOUS
 62
    30
 10
-357.680480525707
 20
453.2581487455893
 30
0.0
 40
6.4957275390625
  0
TEXT
  5
11A
  8
___-1
 62
    30
 10
-371.5338138590403
 20
-316.8564345877439
 30
0.0
 40
41.34114583333334
  1
1400
 50
90.0
  7
MEIRYO_UI
 11
-412.8749596923736
 21
-316.8564345877439
 31
0.0
 73
     3
  0
LINE
  5
11B
  8
___-1
  6
CONTINUOUS
 62
    30
 10
7.319519474292974
 20
-996.7418512544104
 30
0.0
 11
7.319519474292974
 21
-1096.74185125441
 31
0.0
  0
LINE
  5
11C
  8
___-1
  6
CONTINUOUS
 62
    30
 10
-257.680480525707
 20
-996.7418512544104
 30
0.0
 11
-257.680480525707
 21
-1096.74185125441
 31
0.0
  0
LINE
  5
11D
  8
___-1
  6
CONTINUOUS
 62
    30
 10
7.319519474292974
 20
-1096.74185125441
 30
0.0
 11
-257.680480525707
 21
-1096.74185125441
 31
0.0
  0
CIRCLE
  5
11E
  8
___-1
  6
CONTINUOUS
 62
    30
 10
7.319519474292974
 20
-1096.74185125441
 30
0.0
 40
6.4957275390625
  0
CIRCLE
  5
11F
  8
___-1
  6
CONTINUOUS
 62
    30
 10
-257.680480525707
 20
-1096.74185125441
 30
0.0
 40
6.4957275390625
  0
TEXT
  5
120
  8
___-1
 62
    30
 10
-177.766418025707
 20
-1082.888517921077
 30
0.0
 40
41.34114583333334
  1
265
  7
MEIRYO_UI
 11
-177.766418025707
 21
-1041.547372087744
 31
0.0
 73
     3
  0
LINE
  5
121
  8
___-1
  6
CONTINUOUS
 62
    30
 10
39.81951947429297
 20
453.2581487455893
 30
0.0
 11
139.819519474293
 21
453.2581487455893
 31
0.0
  0
LINE
  5
122
  8
___-1
  6
CONTINUOUS
 62
    30
 10
39.81951947429297
 20
435.2581487455893
 30
0.0
 11
139.819519474293
 21
435.2581487455893
 31
0.0
  0
LINE
  5
123
  8
___-1
  6
CONTINUOUS
 62
    30
 10
139.819519474293
 20
453.2581487455893
 30
0.0
 11
139.819519474293
 21
435.2581487455893
 31
0.0
  0
CIRCLE
  5
124
  8
___-1
  6
CONTINUOUS
 62
    30
 10
139.819519474293
 20
453.2581487455893
 30
0.0
 40
6.4957275390625
  0
CIRCLE
  5
125
  8
___-1
  6
CONTINUOUS
 62
    30
 10
139.819519474293
 20
435.2581487455893
 30
0.0
 40
6.4957275390625
  0
TEXT
  5
126
  8
___-1
 62
    30
 10
125.9661861409596
 20
409.2008570789226
 30
0.0
 40
41.34114583333334
  1
18
 50
90.0
  7
MEIRYO_UI
 11
84.6250403076263
 21
409.2008570789226
 31
0.0
 73
     3
  0
LINE
  5
127
  8
___-1
  6
CONTINUOUS
 62
    30
 10
57.31951947429297
 20
-921.7418512544104
 30
0.0
 11
157.319519474293
 21
-921.7418512544104
 31
0.0
  0
LINE
  5
128
  8
___-1
  6
CONTINUOUS
 62
    30
 10
57.31951947429297
 20
-946.7418512544104
 30
0.0
 11
157.319519474293
 21
-946.7418512544104
 31
0.0
  0
LINE
  5
129
  8
___-1
  6
CONTINUOUS
 62
    30
 10
157.319519474293
 20
-921.7418512544104
 30
0.0
 11
157.319519474293
 21
-946.7418512544104
 31
0.0
  0
CIRCLE
  5
12A
  8
___-1
  6
CONTINUOUS
 62
    30
 10
157.319519474293
 20
-921.7418512544104
 30
0.0
 40
6.4957275390625
  0
CIRCLE
  5
12B
  8
___-1
  6
CONTINUOUS
 62
    30
 10
157.319519474293
 20
-946.7418512544104
 30
0.0
 40
6.4957275390625
  0
TEXT
  5
12C
  8
___-1
 62
    30
 10
143.4661861409596
 20
-969.2991429210771
 30
0.0
 40
41.34114583333334
  1
25
 50
90.0
  7
MEIRYO_UI
 11
102.1250403076263
 21
-969.2991429210771
 31
0.0
 73
     3
  0
VIEWPORT
  5
12D
 67
     1
  8
0
 10
128.5
 20
97.5
 30
0.0
 40
314.226
 41
222.18
 68
     1
 69
     1
1001
ACAD
1000
MVIEW
1002
{
1070
    16
1010
0.0
1020
0.0
1030
0.0
1010
0.0
1020
0.0
1030
1.0
1040
0.0
1040
222.18
1040
128.5
1040
97.5
1040
50.0
1040
0.0
1040
0.0
1070
     0
1070
   100
1070
     0
1070
     3
1070
     0
1070
     0
1070
     0
1070
     0
1040
0.0
1040
0.0
1040
0.0
1040
10.0
1040
10.0
1040
10.0
1040
10.0
1070
     0
1002
{
1002
}
1002
}
  0
ENDSEC
  0
EOF
