  0
SECTION
  2
HEADER
  9
$ACADVER
  1
AC1009
  9
$DWGCODEPAGE
  3
dos932
  9
$INSBASE
 10
0.0
 20
0.0
 30
0.0
  9
$EXTMIN
 10
8913.871238534546
 20
-582.1524253076495
 30
0.0
  9
$EXTMAX
 10
10080.0
 20
727.3841417692165
 30
0.0
  9
$LIMMIN
 10
0.0
 20
0.0
  9
$LIMMAX
 10
12.0
 20
9.0
  9
$ORTHOMODE
 70
     0
  9
$REGENMODE
 70
     1
  9
$FILLMODE
 70
     1
  9
$QTEXTMODE
 70
     0
  9
$MIRRTEXT
 70
     1
  9
$DRAGMODE
 70
     2
  9
$LTSCALE
 40
254.0
  9
$OSMODE
 70
    37
  9
$ATTMODE
 70
     1
  9
$TEXTSIZE
 40
0.2
  9
$TRACEWID
 40
1.0
  9
$TEXTSTYLE
  7
STANDARD
  9
$CLAYER
  8
___-1
  9
$CELTYPE
  6
BYLAYER
  9
$CECOLOR
 62
   256
  9
$DIMSCALE
 40
1.0
  9
$DIMASZ
 40
0.18
  9
$DIMEXO
 40
0.0625
  9
$DIMDLI
 40
0.38
  9
$DIMRND
 40
0.0
  9
$DIMDLE
 40
0.0
  9
$DIMEXE
 40
0.18
  9
$DIMTP
 40
0.0
  9
$DIMTM
 40
0.0
  9
$DIMTXT
 40
0.18
  9
$DIMCEN
 40
0.09
  9
$DIMTSZ
 40
0.0
  9
$DIMTOL
 70
     0
  9
$DIMLIM
 70
     0
  9
$DIMTIH
 70
     1
  9
$DIMTOH
 70
     1
  9
$DIMSE1
 70
     0
  9
$DIMSE2
 70
     0
  9
$DIMTAD
 70
     0
  9
$DIMZIN
 70
     0
  9
$DIMBLK
  1

  9
$DIMASO
 70
     1
  9
$DIMSHO
 70
     1
  9
$DIMPOST
  1

  9
$DIMAPOST
  1

  9
$DIMALT
 70
     0
  9
$DIMALTD
 70
     2
  9
$DIMALTF
 40
25.4
  9
$DIMLFAC
 40
1.0
  9
$DIMTOFL
 70
     0
  9
$DIMTVP
 40
0.0
  9
$DIMTIX
 70
     0
  9
$DIMSOXD
 70
     0
  9
$DIMSAH
 70
     0
  9
$DIMBLK1
  1

  9
$DIMBLK2
  1

  9
$DIMSTYLE
  2
STANDARD
  9
$DIMCLRD
 70
     0
  9
$DIMCLRE
 70
     0
  9
$DIMCLRT
 70
     0
  9
$DIMTFAC
 40
1.0
  9
$DIMGAP
 40
0.09
  9
$LUNITS
 70
     2
  9
$LUPREC
 70
     2
  9
$SKETCHINC
 40
0.1
  9
$FILLETRAD
 40
0.5
  9
$AUNITS
 70
     0
  9
$AUPREC
 70
     2
  9
$MENU
  1
.
  9
$ELEVATION
 40
0.0
  9
$PELEVATION
 40
0.0
  9
$THICKNESS
 40
0.0
  9
$LIMCHECK
 70
     0
  9
$CHAMFERA
 40
0.0
  9
$CHAMFERB
 40
0.0
  9
$SKPOLY
 70
     0
  9
$TDCREATE
 40
2458823.669926979
  9
$TDUPDATE
 40
2458823.669938519
  9
$TDINDWG
 40
0.0000000116
  9
$TDUSRTIMER
 40
0.0000000116
  9
$USRTIMER
 70
     1
  9
$ANGBASE
 50
0.0
  9
$ANGDIR
 70
     0
  9
$PDMODE
 70
     1
  9
$PDSIZE
 40
-2.0
  9
$PLINEWID
 40
0.0
  9
$COORDS
 70
     1
  9
$SPLFRAME
 70
     0
  9
$SPLINETYPE
 70
     6
  9
$SPLINESEGS
 70
     8
  9
$ATTDIA
 70
     0
  9
$ATTREQ
 70
     1
  9
$HANDLING
 70
     1
  9
$HANDSEED
  5
A9
  9
$SURFTAB1
 70
     6
  9
$SURFTAB2
 70
     6
  9
$SURFTYPE
 70
     6
  9
$SURFU
 70
     6
  9
$SURFV
 70
     6
  9
$UCSNAME
  2

  9
$UCSORG
 10
0.0
 20
0.0
 30
0.0
  9
$UCSXDIR
 10
1.0
 20
0.0
 30
0.0
  9
$UCSYDIR
 10
0.0
 20
1.0
 30
0.0
  9
$PUCSNAME
  2

  9
$PUCSORG
 10
0.0
 20
0.0
 30
0.0
  9
$PUCSXDIR
 10
1.0
 20
0.0
 30
0.0
  9
$PUCSYDIR
 10
0.0
 20
1.0
 30
0.0
  9
$USERI1
 70
     0
  9
$USERI2
 70
     0
  9
$USERI3
 70
     0
  9
$USERI4
 70
     0
  9
$USERI5
 70
     0
  9
$USERR1
 40
0.0
  9
$USERR2
 40
0.0
  9
$USERR3
 40
0.0
  9
$USERR4
 40
0.0
  9
$USERR5
 40
0.0
  9
$WORLDVIEW
 70
     1
  9
$SHADEDGE
 70
     3
  9
$SHADEDIF
 70
    70
  9
$TILEMODE
 70
     1
  9
$MAXACTVP
 70
    64
  9
$PLIMCHECK
 70
     0
  9
$PEXTMIN
 10
1.000000000000000E+20
 20
1.000000000000000E+20
 30
1.000000000000000E+20
  9
$PEXTMAX
 10
-1.000000000000000E+20
 20
-1.000000000000000E+20
 30
-1.000000000000000E+20
  9
$PLIMMIN
 10
-20.0
 20
-7.5
  9
$PLIMMAX
 10
277.0
 20
202.5
  9
$UNITMODE
 70
     0
  9
$VISRETAIN
 70
     1
  9
$PLINEGEN
 70
     0
  9
$PSLTSCALE
 70
     1
  0
ENDSEC
  0
SECTION
  2
TABLES
  0
TABLE
  2
VPORT
 70
     1
  0
VPORT
  2
*ACTIVE
 70
     0
 10
0.0
 20
0.0
 11
1.0
 21
1.0
 12
9496.935619267273
 22
72.61585823078349
 13
0.0
 23
0.0
 14
0.5
 24
0.5
 15
0.5
 25
0.5
 16
0.0
 26
0.0
 36
1.0
 17
0.0
 27
0.0
 37
0.0
 40
1309.536567076866
 41
0.8904896516700366
 42
2000.0
 43
0.0
 44
0.0
 50
0.0
 51
0.0
 71
     0
 72
   100
 73
     1
 74
     3
 75
     0
 76
     0
 77
     0
 78
     0
  0
ENDTAB
  0
TABLE
  2
LTYPE
 70
     2
  0
LTYPE
  2
CONTINUOUS
 70
     0
  3
Solid line
 72
    65
 73
     0
 40
0.0
  0
LTYPE
  2
ISO-02___
 70
     0
  3

 72
    65
 73
     2
 40
0.15
 49
0.12
 49
-0.03
  0
ENDTAB
  0
TABLE
  2
LAYER
 70
     2
  0
LAYER
  2
0
 70
     0
 62
     7
  6
CONTINUOUS
  0
LAYER
  2
___-1
 70
     0
 62
     7
  6
CONTINUOUS
  0
ENDTAB
  0
TABLE
  2
STYLE
 70
     2
  0
STYLE
  2
STANDARD
 70
     0
 40
0.0
 41
1.0
 50
0.0
 71
     0
 42
0.2
  3
txt
  4
BIGFONT.SHX
  0
STYLE
  2
MEIRYO_UI
 70
     0
 40
0.0
 41
1.0
 50
0.0
 71
     0
 42
0.2
  3

  4
Meiryo UI
  0
ENDTAB
  0
TABLE
  2
VIEW
 70
     0
  0
ENDTAB
  0
TABLE
  2
UCS
 70
     0
  0
ENDTAB
  0
TABLE
  2
APPID
 70
     2
  0
APPID
  2
ACAD
 70
     0
  0
APPID
  2
ACAECLAYERSTANDARD
 70
     0
  0
ENDTAB
  0
TABLE
  2
DIMSTYLE
 70
     1
  0
DIMSTYLE
  2
STANDARD
 70
     0
  3

  4

  5

  6

  7

 40
1.0
 41
0.18
 42
0.0625
 43
0.38
 44
0.18
 45
0.0
 46
0.0
 47
0.0
 48
0.0
140
0.18
141
0.09
142
0.0
143
25.4
144
1.0
145
0.0
146
1.0
147
0.09
 71
     0
 72
     0
 73
     1
 74
     1
 75
     0
 76
     0
 77
     0
 78
     0
170
     0
171
     2
172
     0
173
     0
174
     0
175
     0
176
     0
177
     0
178
     0
  0
ENDTAB
  0
ENDSEC
  0
SECTION
  2
BLOCKS
  0
BLOCK
  8
0
  2
$MODEL_SPACE
 70
     0
 10
0.0
 20
0.0
 30
0.0
  3
$MODEL_SPACE
  1

  0
ENDBLK
  5
21
  8
0
  0
BLOCK
 67
     1
  8
0
  2
$PAPER_SPACE
 70
     0
 10
0.0
 20
0.0
 30
0.0
  3
$PAPER_SPACE
  1

  0
ENDBLK
  5
1D
 67
     1
  8
0
  0
ENDSEC
  0
SECTION
  2
ENTITIES
  0
POLYLINE
  5
73
  8
___-1
  6
CONTINUOUS
 62
     1
 66
     1
 10
0.0
 20
0.0
 30
0.0
 70
   129
  0
VERTEX
  5
74
  8
___-1
  6
CONTINUOUS
 62
     1
 10
8913.871238534546
 20
727.3841417692165
 30
0.0
  0
VERTEX
  5
75
  8
___-1
  6
CONTINUOUS
 62
     1
 10
10080.0
 20
727.3841417692165
 30
0.0
  0
VERTEX
  5
76
  8
___-1
  6
CONTINUOUS
 62
     1
 10
10080.0
 20
-582.1524253076495
 30
0.0
  0
VERTEX
  5
77
  8
___-1
  6
CONTINUOUS
 62
     1
 10
8913.871238534546
 20
-582.1524253076495
 30
0.0
  0
SEQEND
  5
78
  8
___-1
  6
CONTINUOUS
 62
     1
  0
TEXT
  5
79
  8
___-1
 62
     1
 10
8913.871238534546
 20
682.5108084358832
 30
0.0
 40
31.005859375
  1
HEXA900-25
  7
MEIRYO_UI
 11
8913.871238534546
 21
713.5166678108832
 31
0.0
 73
     3
  0
LINE
  5
7A
  8
___-1
  6
CONTINUOUS
 62
     1
 10
9114.4854615179
 20
59.95628384346674
 30
0.0
 11
9339.4854615179
 21
449.667715546464
 31
0.0
  0
LINE
  5
7B
  8
___-1
  6
CONTINUOUS
 62
     1
 10
9339.4854615179
 20
449.667715546464
 30
0.0
 11
9789.4854615179
 21
449.667715546464
 31
0.0
  0
LINE
  5
7C
  8
___-1
  6
CONTINUOUS
 62
     1
 10
9789.4854615179
 20
-329.7551478595306
 30
0.0
 11
9339.4854615179
 21
-329.7551478595306
 31
0.0
  0
LINE
  5
7D
  8
___-1
  6
CONTINUOUS
 62
     1
 10
9339.4854615179
 20
-329.7551478595306
 30
0.0
 11
9114.4854615179
 21
59.95628384346674
 31
0.0
  0
POLYLINE
  5
7E
  8
___-1
  6
CONTINUOUS
 62
     1
 66
     1
 10
0.0
 20
0.0
 30
0.0
 70
   129
  0
VERTEX
  5
7F
  8
___-1
  6
CONTINUOUS
 62
     1
 10
9040.327724848152
 20
449.667715546464
 30
0.0
  0
VERTEX
  5
80
  8
___-1
  6
CONTINUOUS
 62
     1
 10
9065.327724848152
 20
449.667715546464
 30
0.0
  0
VERTEX
  5
81
  8
___-1
  6
CONTINUOUS
 62
     1
 10
9065.327724848152
 20
-329.7551478595304
 30
0.0
  0
VERTEX
  5
82
  8
___-1
  6
CONTINUOUS
 62
     1
 10
9040.327724848152
 20
-329.7551478595304
 30
0.0
  0
SEQEND
  5
83
  8
___-1
  6
CONTINUOUS
 62
     1
  0
LINE
  5
84
  8
___-1
  6
CONTINUOUS
 62
     1
 10
9789.4854615179
 20
469.667715546464
 30
0.0
 11
9789.4854615179
 21
509.667715546464
 31
0.0
  0
LINE
  5
85
  8
___-1
  6
CONTINUOUS
 62
     1
 10
9339.4854615179
 20
469.667715546464
 30
0.0
 11
9339.4854615179
 21
509.667715546464
 31
0.0
  0
LINE
  5
86
  8
___-1
  6
CONTINUOUS
 62
     1
 10
9789.4854615179
 20
509.667715546464
 30
0.0
 11
9339.4854615179
 21
509.667715546464
 31
0.0
  0
CIRCLE
  5
87
  8
___-1
  6
CONTINUOUS
 62
     1
 10
9789.4854615179
 20
509.667715546464
 30
0.0
 40
3.24786376953125
  0
CIRCLE
  5
88
  8
___-1
  6
CONTINUOUS
 62
     1
 10
9339.4854615179
 20
509.667715546464
 30
0.0
 40
3.24786376953125
  0
TEXT
  5
89
  8
___-1
 62
     1
 10
9531.6192505804
 20
517.1760488797971
 30
0.0
 40
25.83821614583334
  1
450
  7
MEIRYO_UI
 11
9531.6192505804
 21
543.0142650256305
 31
0.0
 73
     3
  0
LINE
  5
8A
  8
___-1
  6
CONTINUOUS
 62
     1
 10
9114.4854615179
 20
-348.9815322942154
 30
0.0
 11
9114.4854615179
 21
-408.9815322942154
 31
0.0
  0
LINE
  5
8B
  8
___-1
  6
CONTINUOUS
 62
     1
 10
10014.4854615179
 20
-348.9815322942154
 30
0.0
 11
10014.4854615179
 21
-408.9815322942154
 31
0.0
  0
LINE
  5
8C
  8
___-1
  6
CONTINUOUS
 62
     1
 10
9114.4854615179
 20
-408.9815322942154
 30
0.0
 11
10014.4854615179
 21
-408.9815322942154
 31
0.0
  0
CIRCLE
  5
8D
  8
___-1
  6
CONTINUOUS
 62
     1
 10
9114.4854615179
 20
-408.9815322942154
 30
0.0
 40
3.24786376953125
  0
CIRCLE
  5
8E
  8
___-1
  6
CONTINUOUS
 62
     1
 10
10014.4854615179
 20
-408.9815322942154
 30
0.0
 40
3.24786376953125
  0
TEXT
  5
8F
  8
___-1
 62
     1
 10
9531.619250580403
 20
-401.473198960882
 30
0.0
 40
25.83821614583334
  1
900
  7
MEIRYO_UI
 11
9531.619250580403
 21
-375.6349828150487
 31
0.0
 73
     3
  0
LINE
  5
90
  8
___-1
  6
CONTINUOUS
 62
     1
 10
9020.327724848152
 20
449.667715546464
 30
0.0
 11
8980.327724848152
 21
449.667715546464
 31
0.0
  0
LINE
  5
91
  8
___-1
  6
CONTINUOUS
 62
     1
 10
9020.327724848152
 20
-329.7551478595304
 30
0.0
 11
8980.327724848152
 21
-329.7551478595304
 31
0.0
  0
LINE
  5
92
  8
___-1
  6
CONTINUOUS
 62
     1
 10
8980.327724848152
 20
449.667715546464
 30
0.0
 11
8980.327724848152
 21
-329.7551478595304
 31
0.0
  0
CIRCLE
  5
93
  8
___-1
  6
CONTINUOUS
 62
     1
 10
8980.327724848152
 20
449.667715546464
 30
0.0
 40
3.24786376953125
  0
CIRCLE
  5
94
  8
___-1
  6
CONTINUOUS
 62
     1
 10
8980.327724848152
 20
-329.7551478595304
 30
0.0
 40
3.24786376953125
  0
TEXT
  5
95
  8
___-1
 62
     1
 10
8972.819391514819
 20
27.09007290596514
 30
0.0
 40
25.83821614583334
  1
780
 50
90.0
  7
MEIRYO_UI
 11
8946.981175368985
 21
27.09007290596514
 31
0.0
 73
     3
  0
LINE
  5
96
  8
___-1
  6
CONTINUOUS
 62
     1
 10
9065.327724848152
 20
-349.7551478595304
 30
0.0
 11
9065.327724848152
 21
-409.7551478595304
 31
0.0
  0
LINE
  5
97
  8
___-1
  6
CONTINUOUS
 62
     1
 10
9040.327724848152
 20
-349.7551478595304
 30
0.0
 11
9040.327724848152
 21
-409.7551478595304
 31
0.0
  0
LINE
  5
98
  8
___-1
  6
CONTINUOUS
 62
     1
 10
9065.327724848152
 20
-409.7551478595304
 30
0.0
 11
9040.327724848152
 21
-409.7551478595304
 31
0.0
  0
CIRCLE
  5
99
  8
___-1
  6
CONTINUOUS
 62
     1
 10
9065.327724848152
 20
-409.7551478595304
 30
0.0
 40
3.24786376953125
  0
CIRCLE
  5
9A
  8
___-1
  6
CONTINUOUS
 62
     1
 10
9040.327724848152
 20
-409.7551478595304
 30
0.0
 40
3.24786376953125
  0
TEXT
  5
9B
  8
___-1
 62
     1
 10
9030.916917556486
 20
-402.2468145261971
 30
0.0
 40
25.83821614583334
  1
25
  7
MEIRYO_UI
 11
9030.916917556486
 21
-376.4085983803638
 31
0.0
 73
     3
  0
LINE
  5
9C
  8
___-1
  6
CONTINUOUS
 62
     1
 10
10014.4854615179
 20
59.95628384346674
 30
0.0
 11
9789.4854615179
 21
449.667715546464
 31
0.0
  0
LINE
  5
9D
  8
___-1
  6
CONTINUOUS
 62
     1
 10
9789.4854615179
 20
-329.7551478595306
 30
0.0
 11
10014.4854615179
 21
59.95628384346674
 31
0.0
  0
VIEWPORT
  5
9E
 67
     1
  8
0
 10
128.5
 20
97.5
 30
0.0
 40
314.226
 41
222.18
 68
     1
 69
     1
1001
ACAD
1000
MVIEW
1002
{
1070
    16
1010
0.0
1020
0.0
1030
0.0
1010
0.0
1020
0.0
1030
1.0
1040
0.0
1040
222.18
1040
128.5
1040
97.5
1040
50.0
1040
0.0
1040
0.0
1070
     0
1070
   100
1070
     0
1070
     3
1070
     0
1070
     0
1070
     0
1070
     0
1040
0.0
1040
0.0
1040
0.0
1040
10.0
1040
10.0
1040
10.0
1040
10.0
1070
     0
1002
{
1002
}
1002
}
  0
ENDSEC
  0
EOF
