  0
SECTION
  2
HEADER
  9
$ACADVER
  1
AC1009
  9
$INSBASE
 10
0
 20
0
 30
0
  9
$EXTMIN
 10
0
 20
0
  9
$EXTMAX
 10
2376
 20
1680
  9
$LIMMIN
 10
0
 20
0
  9
$LIMMAX
 10
2376
 20
1680
  9
$LTSCALE
 40
8
  0
ENDSEC
  0
SECTION
  2
TABLES
  0
TABLE
  2
LTYPE
 70
     9
  0
LTYPE
  2
CONTINUOUS
 70
    64
  3
実線
 72
    65
 73
     0
 40
0.0
  0
LTYPE
  2
DASHED1
 70
    64
  3
--  --  --  --  --  --  --  --  
 72
    65
 73
     2
 40
2.5
 49
1.25
 49
-1.25
  0
LTYPE
  2
DASHED2
 70
    64
  3
----    ----    ----    ----    
 72
    65
 73
     2
 40
5.0
 49
2.5
 49
-2.5
  0
LTYPE
  2
DASHED3
 70
    64
  3
------  ------  ------  ------  
 72
    65
 73
     2
 40
5.0
 49
3.75
 49
-1.25
  0
LTYPE
  2
CENTER1
 70
    64
  3
----- - ----- - ----- - ----- - 
 72
    65
 73
     4
 40
10.0
 49
6.25
 49
-1.25
 49
1.25
 49
-1.25
  0
LTYPE
  2
CENTER2
 70
    64
  3
----------  --  ----------  --  
 72
    65
 73
     4
 40
20.0
 49
12.5
 49
-2.5
 49
2.5
 49
-2.5
  0
LTYPE
  2
PHANTOM1
 70
    64
  3
--- - - --- - - --- - - --- - - 
 72
    65
 73
     6
 40
10.0
 49
3.25
 49
-1.25
 49
1.25
 49
-1.25
 49
1.25
 49
-1.25
  0
LTYPE
  2
PHANTOM2
 70
    64
  3
--------  -  -  --------  -  -  
 72
    65
 73
     6
 40
20.0
 49
10.0
 49
-2.5
 49
1.25
 49
-2.5
 49
1.25
 49
-2.5
  0
LTYPE
  2
DOT
 70
    64
  3
-   -   -   -   -   -   -   -   
 72
    65
 73
     2
 40
2.5
 49
0.625
 49
-1.875
  0
LTYPE
  2
DUMMY
 70
    64
  3
ダミー
 72
    65
 73
     0
 40
0.0
  0
LTYPE
  2
RAND1
 70
    64
  3
ランダム線1
 72
    65
 73
     4
 40
10.0
 49
1.0
 49
-2.0
 49
3.0
 49
-4.0
  0
LTYPE
  2
RAND2
 70
    64
  3
ランダム線2
 72
    65
 73
     4
 40
14.0
 49
2.0
 49
-3.0
 49
4.0
 49
-5.0
  0
LTYPE
  2
RAND3
 70
    64
  3
ランダム線3
 72
    65
 73
     4
 40
18.0
 49
3.0
 49
-4.0
 49
5.0
 49
-6.0
  0
LTYPE
  2
RAND4
 70
    64
  3
ランダム線4
 72
    65
 73
     4
 40
22.0
 49
4.0
 49
-5.0
 49
6.0
 49
-7.0
  0
LTYPE
  2
RAND5
 70
    64
  3
ランダム線5
 72
    65
 73
     4
 40
26.0
 49
5.0
 49
-6.0
 49
7.0
 49
-8.0
  0
LTYPE
  2
LONG1
 70
    64
  3
----------  --  ----------  --  
 72
    65
 73
     4
 40
40.0
 49
32.5
 49
-2.5
 49
2.5
 49
-2.5
  0
LTYPE
  2
LONG2
 70
    64
  3
--------  -  -  --------  -  -  
 72
    65
 73
     6
 40
40.0
 49
30.0
 49
-2.5
 49
1.25
 49
-2.5
 49
1.25
 49
-2.5
  0
LTYPE
  2
LONG3
 70
    64
  3
+++++++++++++++..+++++++++++++++
 72
    65
 73
     2
 40
40.0
 49
37.5
 49
-2.5
  0
LTYPE
  2
LONG4
 70
    64
  3
+++++++++++++++..+++++++++++++++
 72
    65
 73
     2
 40
80.0
 49
75.0
 49
-5.0
  0
LTYPE
  2
LONG5
 70
    64
  3
----------  --  ----------  --  
 72
    65
 73
     4
 40
60.0
 49
37.5
 49
-7.5
 49
7.5
 49
-7.5
  0
LTYPE
  2
dashed
 70
   64
  3
-------   -------------   ------
 72
   65
 73
    2
 40
7.5
 49
6
 49
-1.5
  0
LTYPE
  2
dashed_spaced
 70
   64
  3
----        --------        ----
 72
   65
 73
    2
 40
12
 49
6
 49
-6
  0
LTYPE
  2
long_dashed_dotted
 70
   64
  3
------------- --- --------------
 72
   65
 73
    4
 40
15.25
 49
12
 49
-1.5
 49
0.25
 49
-1.5
  0
LTYPE
  2
long_dashed_double-dotted
 70
   64
  3
----------- --- --- ------------
 72
   65
 73
    6
 40
17
 49
12
 49
-1.5
 49
0.25
 49
-1.5
 49
0.25
 49
-1.5
  0
LTYPE
  2
long_dashed_triplicate-dotted
 70
   64
  3
--------- --- --- --- ----------
 72
   65
 73
    8
 40
18.75
 49
12
 49
-1.5
 49
0.25
 49
-1.5
 49
0.25
 49
-1.5
 49
0.25
 49
-1.5
  0
LTYPE
  2
dotted
 70
   64
  3
   -       -       -       -    
 72
   65
 73
    2
 40
1.75
 49
0.25
 49
-1.5
  0
LTYPE
  2
chain
 70
   64
  3
-------------- -- --------------
 72
   65
 73
    4
 40
18.5
 49
12
 49
-1.5
 49
3.5
 49
-1.5
  0
LTYPE
  2
chain_double_dash
 70
   64
  3
------------ -- -- -------------
 72
   65
 73
    6
 40
23.5
 49
12
 49
-1.5
 49
3.5
 49
-1.5
 49
3.5
 49
-1.5
  0
LTYPE
  2
dashed_dotted
 70
   64
  3
-----------     -     ----------
 72
   65
 73
    4
 40
9.25
 49
6
 49
-1.5
 49
0.25
 49
-1.5
  0
LTYPE
  2
double-dashed_dotted
 70
   64
  3
------   -----------   -   -----
 72
   65
 73
    6
 40
16.75
 49
6
 49
-1.5
 49
6
 49
-1.5
 49
0.25
 49
-1.5
  0
LTYPE
  2
dashed_double-dotted
 70
   64
  3
---------    -    -    ---------
 72
   65
 73
    6
 40
11
 49
6
 49
-1.5
 49
0.25
 49
-1.5
 49
0.25
 49
-1.5
  0
LTYPE
  2
double-dashed_double-dotted
 70
   64
  3
-----   ---------   -   -   ----
 72
   65
 73
    8
 40
18.5
 49
6
 49
-1.5
 49
6
 49
-1.5
 49
0.25
 49
-1.5
 49
0.25
 49
-1.5
  0
LTYPE
  2
dashed_triplicate-dotted
 70
   64
  3
-------    -    -    -    ------
 72
   65
 73
    8
 40
12.75
 49
6
 49
-1.5
 49
0.25
 49
-1.5
 49
0.25
 49
-1.5
 49
0.25
 49
-1.5
  0
LTYPE
  2
double-dashed_triplicate-dotted
 70
   64
  3
-----  ---------  -  -  -  -----
 72
   65
 73
   10
 40
20.25
 49
6
 49
-1.5
 49
6
 49
-1.5
 49
0.25
 49
-1.5
 49
0.25
 49
-1.5
 49
0.25
 49
-1.5
  0
LTYPE
  2
undefined
 70
   64
  3
--------------------------------
 72
   65
 73
    0
 40
0
  0
LTYPE
  2
_
 70
   64
  3
                                
 72
   65
 73
    0
 40
0
  0
LTYPE
  2
__18
 70
   64
  3
                                
 72
   65
 73
    0
 40
0
  0
LTYPE
  2
__19
 70
   64
  3
                                
 72
   65
 73
    0
 40
0
  0
LTYPE
  2
__20
 70
   64
  3
                                
 72
   65
 73
    0
 40
0
  0
LTYPE
  2
__21
 70
   64
  3
                                
 72
   65
 73
    0
 40
0
  0
LTYPE
  2
__22
 70
   64
  3
                                
 72
   65
 73
    0
 40
0
  0
LTYPE
  2
__23
 70
   64
  3
                                
 72
   65
 73
    0
 40
0
  0
LTYPE
  2
__24
 70
   64
  3
                                
 72
   65
 73
    0
 40
0
  0
LTYPE
  2
__25
 70
   64
  3
                                
 72
   65
 73
    0
 40
0
  0
LTYPE
  2
__26
 70
   64
  3
                                
 72
   65
 73
    0
 40
0
  0
LTYPE
  2
__27
 70
   64
  3
                                
 72
   65
 73
    0
 40
0
  0
LTYPE
  2
__28
 70
   64
  3
                                
 72
   65
 73
    0
 40
0
  0
LTYPE
  2
__29
 70
   64
  3
                                
 72
   65
 73
    0
 40
0
  0
LTYPE
  2
__30
 70
   64
  3
                                
 72
   65
 73
    0
 40
0
  0
LTYPE
  2
__31
 70
   64
  3
                                
 72
   65
 73
    0
 40
0
  0
LTYPE
  2
__32
 70
   64
  3
                                
 72
   65
 73
    0
 40
0
  0
ENDTAB
  0
TABLE
  2
STYLE
  5
3
100
AcDbSymbolTable
 70
     1
  0
STYLE
  5
10
100
AcDbSymbolTableRecord
100
AcDbTextStyleTableRecord
  2
STANDARD
 70
     0
 40
0.0
 41
1.0
 50
0.0
 71
     0
 42
0.2
  3
txt
  4
bigfont.shx
  0
STYLE
  5
26
100
AcDbSymbolTableRecord
100
AcDbTextStyleTableRecord
  2
TATEGAKI
 70
    68
 40
0.0
 41
1.0
 50
0.0
 71
     0
 42
1.0
  3
txt
  4
bigfont.shx
  0
ENDTAB
  0
TABLE
  2
LAYER
 70
    2
  0
LAYER
  2
_0-0_
 70
   64
 62
    7
  6
CONTINUOUS
  0
LAYER
  2
ADD_LINE
 70
   64
 62
    7
  6
CONTINUOUS
  0
ENDTAB
  0
ENDSEC
  0
SECTION
  2
BLOCKS
  0
ENDSEC
  0
SECTION
  2
ENTITIES
  0
LINE
  8
_0-0_
  6
CONTINUOUS
 62
    4
 10
1575.6894618074232
 20
124.88303734393867
 11
2165.689461807423
 21
124.88303734393867
  0
LINE
  8
_0-0_
  6
CONTINUOUS
 62
    4
 10
1575.6894618074232
 20
124.88303734393867
 11
1575.6894618074232
 21
1524.8830373439387
  0
LINE
  8
_0-0_
  6
CONTINUOUS
 62
    4
 10
2165.689461807423
 20
124.88303734393867
 11
2165.689461807423
 21
1524.8830373439387
  0
LINE
  8
_0-0_
  6
CONTINUOUS
 62
    4
 10
1575.6894618074232
 20
1524.8830373439387
 11
2165.689461807423
 21
1524.8830373439387
  0
LINE
  8
_0-0_
  6
CONTINUOUS
 62
    4
 10
2185.689461807423
 20
124.88303734393867
 11
2775.689461807423
 21
124.88303734393867
  0
LINE
  8
_0-0_
  6
CONTINUOUS
 62
    4
 10
2185.689461807423
 20
124.88303734393867
 11
2185.689461807423
 21
1524.8830373439387
  0
LINE
  8
_0-0_
  6
CONTINUOUS
 62
    4
 10
2775.689461807423
 20
124.88303734393867
 11
2775.689461807423
 21
1524.8830373439387
  0
LINE
  8
_0-0_
  6
CONTINUOUS
 62
    4
 10
2185.689461807423
 20
1524.8830373439387
 11
2775.689461807423
 21
1524.8830373439387
  0
LINE
  8
_0-0_
  6
CONTINUOUS
 62
    4
 10
2185.689461807423
 20
1524.8830373439387
 11
2185.689461807423
 21
124.88303734393867
  0
LINE
  8
_0-0_
  6
CONTINUOUS
 62
    4
 10
2165.689461807423
 20
1524.8830373439387
 11
2165.689461807423
 21
124.88303734393867
  0
LINE
  8
_0-0_
  6
CONTINUOUS
 62
    4
 10
1575.6894618074232
 20
1624.8830373439387
 11
2165.689461807423
 21
1624.8830373439387
  0
LINE
  8
_0-0_
  6
CONTINUOUS
 62
    4
 10
1575.6894618074232
 20
1624.8830373439387
 11
1575.6894618074232
 21
1644.8830373439387
  0
LINE
  8
_0-0_
  6
CONTINUOUS
 62
    4
 10
2165.689461807423
 20
1624.8830373439387
 11
2165.689461807423
 21
1644.8830373439387
  0
LINE
  8
_0-0_
  6
CONTINUOUS
 62
    4
 10
1575.6894618074232
 20
1644.8830373439387
 11
2165.689461807423
 21
1644.8830373439387
  0
LINE
  8
_0-0_
  6
CONTINUOUS
 62
    4
 10
2185.689461807423
 20
1624.8830373439387
 11
2775.689461807423
 21
1624.8830373439387
  0
LINE
  8
_0-0_
  6
CONTINUOUS
 62
    4
 10
2185.689461807423
 20
1624.8830373439387
 11
2185.689461807423
 21
1644.8830373439387
  0
LINE
  8
_0-0_
  6
CONTINUOUS
 62
    4
 10
2775.689461807423
 20
1624.8830373439387
 11
2775.689461807423
 21
1644.8830373439387
  0
LINE
  8
_0-0_
  6
CONTINUOUS
 62
    4
 10
2185.689461807423
 20
1644.8830373439387
 11
2775.689461807423
 21
1644.8830373439387
  0
LINE
  8
_0-0_
  6
CONTINUOUS
 62
    4
 10
2775.689461807423
 20
1634.8830373439387
 11
1575.6894618074232
 21
1634.8830373439387
  0
LINE
  8
_0-0_
  6
CONTINUOUS
 62
    4
 10
2975.689461807423
 20
124.88303734393867
 11
2995.689461807423
 21
124.88303734393867
  0
LINE
  8
_0-0_
  6
CONTINUOUS
 62
    4
 10
2975.689461807423
 20
124.88303734393867
 11
2975.689461807423
 21
1524.8830373439387
  0
LINE
  8
_0-0_
  6
CONTINUOUS
 62
    4
 10
2995.689461807423
 20
124.88303734393867
 11
2995.689461807423
 21
1524.8830373439387
  0
LINE
  8
_0-0_
  6
CONTINUOUS
 62
    4
 10
2975.689461807423
 20
1524.8830373439387
 11
2995.689461807423
 21
1524.8830373439387
  0
LINE
  8
_0-0_
  6
CONTINUOUS
 62
    4
 10
2985.689461807423
 20
1524.8830373439387
 11
2985.689461807423
 21
124.88303734393867
  0
TEXT
  8
_0-0_
 62
    7
 10
2106.2061235378719
 20
1846.025661218074
 40
43.010666666666651
 41
1.0568043654469663
 50
0
  1
DOUBLE STAND 1400
  0
LINE
  8
_0-0_
  6
CONTINUOUS
 62
    4
 10
2175.689461807423
 20
74.883037343938668
 11
2175.689461807423
 21
24.883037343938668
  0
LINE
  8
_0-0_
  6
CONTINUOUS
 62
    4
 10
1575.6894618074232
 20
74.883037343938668
 11
1575.6894618074232
 21
24.883037343938668
  0
LINE
  8
_0-0_
  6
CONTINUOUS
 62
    4
 10
2175.689461807423
 20
24.883037343938668
 11
1575.6894618074232
 21
24.883037343938668
  0
CIRCLE
  8
_0-0_
  6
CONTINUOUS
 62
    4
 10
2175.689461807423
 20
24.883037343938668
 40
2.5982910156250227
  0
CIRCLE
  8
_0-0_
  6
CONTINUOUS
 62
    4
 10
1575.6894618074232
 20
24.883037343938668
 40
2.5982910156250227
  0
TEXT
  8
_0-0_
 62
    7
 10
1849.3964930574232
 20
25.883037343938668
 40
35.842222222222226
 41
0.9781003937007872
 50
0
  1
600
  0
LINE
  8
_0-0_
  6
CONTINUOUS
 62
    4
 10
2775.689461807423
 20
74.883037343938668
 11
2775.689461807423
 21
24.883037343938668
  0
LINE
  8
_0-0_
  6
CONTINUOUS
 62
    4
 10
2175.689461807423
 20
74.883037343938668
 11
2175.689461807423
 21
24.883037343938668
  0
LINE
  8
_0-0_
  6
CONTINUOUS
 62
    4
 10
2775.689461807423
 20
24.883037343938668
 11
2175.689461807423
 21
24.883037343938668
  0
LINE
  8
_0-0_
  6
CONTINUOUS
 62
    4
 10
2778.2877528230483
 20
24.883037343938668
 11
2778.2877528230483
 21
24.883037343938668
  0
LINE
  8
_0-0_
  6
CONTINUOUS
 62
    4
 10
2778.2877528230483
 20
24.883037343938668
 11
2778.2482789441929
 21
25.334225843850309
  0
LINE
  8
_0-0_
  6
CONTINUOUS
 62
    4
 10
2778.2482789441929
 20
25.334225843850309
 11
2778.1310567014602
 21
25.771705209504535
  0
LINE
  8
_0-0_
  6
CONTINUOUS
 62
    4
 10
2778.1310567014602
 20
25.771705209504535
 11
2777.9396478333792
 21
26.182182851751179
  0
LINE
  8
_0-0_
  6
CONTINUOUS
 62
    4
 10
2777.9396478333792
 20
26.182182851751179
 11
2777.6798682015487
 21
26.553186615142288
  0
LINE
  8
_0-0_
  6
CONTINUOUS
 62
    4
 10
2777.6798682015487
 20
26.553186615142288
 11
2777.359611078627
 21
26.873443738064182
  0
LINE
  8
_0-0_
  6
CONTINUOUS
 62
    4
 10
2777.359611078627
 20
26.873443738064182
 11
2776.9886073152361
 21
27.133223369894807
  0
LINE
  8
_0-0_
  6
CONTINUOUS
 62
    4
 10
2776.9886073152361
 20
27.133223369894807
 11
2776.5781296729892
 21
27.324632237975823
  0
LINE
  8
_0-0_
  6
CONTINUOUS
 62
    4
 10
2776.5781296729892
 20
27.324632237975823
 11
2776.1406503073349
 21
27.441854480708155
  0
LINE
  8
_0-0_
  6
CONTINUOUS
 62
    4
 10
2776.1406503073349
 20
27.441854480708155
 11
2775.6894618074234
 21
27.48132835956369
  0
LINE
  8
_0-0_
  6
CONTINUOUS
 62
    4
 10
2775.6894618074234
 20
27.48132835956369
 11
2775.2382733075119
 21
27.441854480708155
  0
LINE
  8
_0-0_
  6
CONTINUOUS
 62
    4
 10
2775.2382733075119
 20
27.441854480708155
 11
2774.8007939418576
 21
27.324632237975827
  0
LINE
  8
_0-0_
  6
CONTINUOUS
 62
    4
 10
2774.8007939418576
 20
27.324632237975827
 11
2774.3903162996112
 21
27.133223369894807
  0
LINE
  8
_0-0_
  6
CONTINUOUS
 62
    4
 10
2774.3903162996112
 20
27.133223369894807
 11
2774.0193125362198
 21
26.873443738064182
  0
LINE
  8
_0-0_
  6
CONTINUOUS
 62
    4
 10
2774.0193125362198
 20
26.873443738064182
 11
2773.6990554132981
 21
26.553186615142288
  0
LINE
  8
_0-0_
  6
CONTINUOUS
 62
    4
 10
2773.6990554132981
 20
26.553186615142288
 11
2773.4392757814676
 21
26.182182851751183
  0
LINE
  8
_0-0_
  6
CONTINUOUS
 62
    4
 10
2773.4392757814676
 20
26.182182851751183
 11
2773.2478669133866
 21
25.771705209504539
  0
LINE
  8
_0-0_
  6
CONTINUOUS
 62
    4
 10
2773.2478669133866
 20
25.771705209504539
 11
2773.130644670654
 21
25.334225843850312
  0
LINE
  8
_0-0_
  6
CONTINUOUS
 62
    4
 10
2773.130644670654
 20
25.334225843850312
 11
2773.0911707917985
 21
24.883037343938671
  0
LINE
  8
_0-0_
  6
CONTINUOUS
 62
    4
 10
2773.0911707917985
 20
24.883037343938671
 11
2773.130644670654
 21
24.43184884402703
  0
LINE
  8
_0-0_
  6
CONTINUOUS
 62
    4
 10
2773.130644670654
 20
24.43184884402703
 11
2773.2478669133866
 21
23.994369478372803
  0
LINE
  8
_0-0_
  6
CONTINUOUS
 62
    4
 10
2773.2478669133866
 20
23.994369478372803
 11
2773.4392757814676
 21
23.58389183612616
  0
LINE
  8
_0-0_
  6
CONTINUOUS
 62
    4
 10
2773.4392757814676
 20
23.58389183612616
 11
2773.6990554132981
 21
23.212888072735055
  0
LINE
  8
_0-0_
  6
CONTINUOUS
 62
    4
 10
2773.6990554132981
 20
23.212888072735055
 11
2774.0193125362198
 21
22.892630949813157
  0
LINE
  8
_0-0_
  6
CONTINUOUS
 62
    4
 10
2774.0193125362198
 20
22.892630949813157
 11
2774.3903162996107
 21
22.632851317982531
  0
LINE
  8
_0-0_
  6
CONTINUOUS
 62
    4
 10
2774.3903162996107
 20
22.632851317982531
 11
2774.8007939418576
 21
22.441442449901512
  0
LINE
  8
_0-0_
  6
CONTINUOUS
 62
    4
 10
2774.8007939418576
 20
22.441442449901512
 11
2775.2382733075119
 21
22.324220207169184
  0
LINE
  8
_0-0_
  6
CONTINUOUS
 62
    4
 10
2775.2382733075119
 20
22.324220207169184
 11
2775.6894618074234
 21
22.284746328313645
  0
LINE
  8
_0-0_
  6
CONTINUOUS
 62
    4
 10
2775.6894618074234
 20
22.284746328313645
 11
2776.1406503073349
 21
22.32422020716918
  0
LINE
  8
_0-0_
  6
CONTINUOUS
 62
    4
 10
2776.1406503073349
 20
22.32422020716918
 11
2776.5781296729892
 21
22.441442449901508
  0
LINE
  8
_0-0_
  6
CONTINUOUS
 62
    4
 10
2776.5781296729892
 20
22.441442449901508
 11
2776.9886073152356
 21
22.632851317982524
  0
LINE
  8
_0-0_
  6
CONTINUOUS
 62
    4
 10
2776.9886073152356
 20
22.632851317982524
 11
2777.359611078627
 21
22.892630949813146
  0
LINE
  8
_0-0_
  6
CONTINUOUS
 62
    4
 10
2777.359611078627
 20
22.892630949813146
 11
2777.6798682015487
 21
23.212888072735041
  0
LINE
  8
_0-0_
  6
CONTINUOUS
 62
    4
 10
2777.6798682015487
 20
23.212888072735041
 11
2777.9396478333792
 21
23.583891836126146
  0
LINE
  8
_0-0_
  6
CONTINUOUS
 62
    4
 10
2777.9396478333792
 20
23.583891836126146
 11
2778.1310567014602
 21
23.994369478372789
  0
LINE
  8
_0-0_
  6
CONTINUOUS
 62
    4
 10
2778.1310567014602
 20
23.994369478372789
 11
2778.2482789441929
 21
24.431848844027012
  0
LINE
  8
_0-0_
  6
CONTINUOUS
 62
    4
 10
2778.2482789441929
 20
24.431848844027012
 11
2778.2877528230483
 21
24.883037343938657
  0
LINE
  8
_0-0_
  6
CONTINUOUS
 62
    4
 10
2778.2877528230483
 20
24.883037343938657
 11
2778.2877528230483
 21
24.883037343938668
  0
CIRCLE
  8
_0-0_
  6
CONTINUOUS
 62
    4
 10
2175.689461807423
 20
24.883037343938668
 40
2.5982910156250227
  0
TEXT
  8
_0-0_
 62
    7
 10
2449.396493057423
 20
25.883037343938668
 40
35.842222222222226
 41
0.9781003937007872
 50
0
  1
600
  0
LINE
  8
_0-0_
  6
CONTINUOUS
 62
    4
 10
2825.689461807423
 20
124.88303734393867
 11
2875.689461807423
 21
124.88303734393867
  0
LINE
  8
_0-0_
  6
CONTINUOUS
 62
    4
 10
2825.689461807423
 20
1524.8830373439387
 11
2875.689461807423
 21
1524.8830373439387
  0
LINE
  8
_0-0_
  6
CONTINUOUS
 62
    4
 10
2875.689461807423
 20
124.88303734393867
 11
2875.689461807423
 21
1524.8830373439387
  0
LINE
  8
_0-0_
  6
CONTINUOUS
 62
    4
 10
2878.2877528230483
 20
124.88303734393867
 11
2878.2877528230483
 21
124.88303734393867
  0
LINE
  8
_0-0_
  6
CONTINUOUS
 62
    4
 10
2878.2877528230483
 20
124.88303734393867
 11
2878.2482789441929
 21
125.33422584385031
  0
LINE
  8
_0-0_
  6
CONTINUOUS
 62
    4
 10
2878.2482789441929
 20
125.33422584385031
 11
2878.1310567014602
 21
125.77170520950453
  0
LINE
  8
_0-0_
  6
CONTINUOUS
 62
    4
 10
2878.1310567014602
 20
125.77170520950453
 11
2877.9396478333792
 21
126.18218285175118
  0
LINE
  8
_0-0_
  6
CONTINUOUS
 62
    4
 10
2877.9396478333792
 20
126.18218285175118
 11
2877.6798682015487
 21
126.55318661514228
  0
LINE
  8
_0-0_
  6
CONTINUOUS
 62
    4
 10
2877.6798682015487
 20
126.55318661514228
 11
2877.359611078627
 21
126.87344373806418
  0
LINE
  8
_0-0_
  6
CONTINUOUS
 62
    4
 10
2877.359611078627
 20
126.87344373806418
 11
2876.9886073152361
 21
127.13322336989481
  0
LINE
  8
_0-0_
  6
CONTINUOUS
 62
    4
 10
2876.9886073152361
 20
127.13322336989481
 11
2876.5781296729892
 21
127.32463223797582
  0
LINE
  8
_0-0_
  6
CONTINUOUS
 62
    4
 10
2876.5781296729892
 20
127.32463223797582
 11
2876.1406503073349
 21
127.44185448070816
  0
LINE
  8
_0-0_
  6
CONTINUOUS
 62
    4
 10
2876.1406503073349
 20
127.44185448070816
 11
2875.6894618074234
 21
127.48132835956369
  0
LINE
  8
_0-0_
  6
CONTINUOUS
 62
    4
 10
2875.6894618074234
 20
127.48132835956369
 11
2875.2382733075119
 21
127.44185448070816
  0
LINE
  8
_0-0_
  6
CONTINUOUS
 62
    4
 10
2875.2382733075119
 20
127.44185448070816
 11
2874.8007939418576
 21
127.32463223797582
  0
LINE
  8
_0-0_
  6
CONTINUOUS
 62
    4
 10
2874.8007939418576
 20
127.32463223797582
 11
2874.3903162996112
 21
127.13322336989481
  0
LINE
  8
_0-0_
  6
CONTINUOUS
 62
    4
 10
2874.3903162996112
 20
127.13322336989481
 11
2874.0193125362198
 21
126.87344373806418
  0
LINE
  8
_0-0_
  6
CONTINUOUS
 62
    4
 10
2874.0193125362198
 20
126.87344373806418
 11
2873.6990554132981
 21
126.55318661514229
  0
LINE
  8
_0-0_
  6
CONTINUOUS
 62
    4
 10
2873.6990554132981
 20
126.55318661514229
 11
2873.4392757814676
 21
126.18218285175118
  0
LINE
  8
_0-0_
  6
CONTINUOUS
 62
    4
 10
2873.4392757814676
 20
126.18218285175118
 11
2873.2478669133866
 21
125.77170520950453
  0
LINE
  8
_0-0_
  6
CONTINUOUS
 62
    4
 10
2873.2478669133866
 20
125.77170520950453
 11
2873.130644670654
 21
125.33422584385032
  0
LINE
  8
_0-0_
  6
CONTINUOUS
 62
    4
 10
2873.130644670654
 20
125.33422584385032
 11
2873.0911707917985
 21
124.88303734393867
  0
LINE
  8
_0-0_
  6
CONTINUOUS
 62
    4
 10
2873.0911707917985
 20
124.88303734393867
 11
2873.130644670654
 21
124.43184884402703
  0
LINE
  8
_0-0_
  6
CONTINUOUS
 62
    4
 10
2873.130644670654
 20
124.43184884402703
 11
2873.2478669133866
 21
123.9943694783728
  0
LINE
  8
_0-0_
  6
CONTINUOUS
 62
    4
 10
2873.2478669133866
 20
123.9943694783728
 11
2873.4392757814676
 21
123.58389183612616
  0
LINE
  8
_0-0_
  6
CONTINUOUS
 62
    4
 10
2873.4392757814676
 20
123.58389183612616
 11
2873.6990554132981
 21
123.21288807273505
  0
LINE
  8
_0-0_
  6
CONTINUOUS
 62
    4
 10
2873.6990554132981
 20
123.21288807273505
 11
2874.0193125362198
 21
122.89263094981315
  0
LINE
  8
_0-0_
  6
CONTINUOUS
 62
    4
 10
2874.0193125362198
 20
122.89263094981315
 11
2874.3903162996107
 21
122.63285131798253
  0
LINE
  8
_0-0_
  6
CONTINUOUS
 62
    4
 10
2874.3903162996107
 20
122.63285131798253
 11
2874.8007939418576
 21
122.44144244990152
  0
LINE
  8
_0-0_
  6
CONTINUOUS
 62
    4
 10
2874.8007939418576
 20
122.44144244990152
 11
2875.2382733075119
 21
122.32422020716918
  0
LINE
  8
_0-0_
  6
CONTINUOUS
 62
    4
 10
2875.2382733075119
 20
122.32422020716918
 11
2875.6894618074234
 21
122.28474632831364
  0
LINE
  8
_0-0_
  6
CONTINUOUS
 62
    4
 10
2875.6894618074234
 20
122.28474632831364
 11
2876.1406503073349
 21
122.32422020716918
  0
LINE
  8
_0-0_
  6
CONTINUOUS
 62
    4
 10
2876.1406503073349
 20
122.32422020716918
 11
2876.5781296729892
 21
122.4414424499015
  0
LINE
  8
_0-0_
  6
CONTINUOUS
 62
    4
 10
2876.5781296729892
 20
122.4414424499015
 11
2876.9886073152356
 21
122.63285131798253
  0
LINE
  8
_0-0_
  6
CONTINUOUS
 62
    4
 10
2876.9886073152356
 20
122.63285131798253
 11
2877.359611078627
 21
122.89263094981315
  0
LINE
  8
_0-0_
  6
CONTINUOUS
 62
    4
 10
2877.359611078627
 20
122.89263094981315
 11
2877.6798682015487
 21
123.21288807273504
  0
LINE
  8
_0-0_
  6
CONTINUOUS
 62
    4
 10
2877.6798682015487
 20
123.21288807273504
 11
2877.9396478333792
 21
123.58389183612614
  0
LINE
  8
_0-0_
  6
CONTINUOUS
 62
    4
 10
2877.9396478333792
 20
123.58389183612614
 11
2878.1310567014602
 21
123.99436947837279
  0
LINE
  8
_0-0_
  6
CONTINUOUS
 62
    4
 10
2878.1310567014602
 20
123.99436947837279
 11
2878.2482789441929
 21
124.43184884402702
  0
LINE
  8
_0-0_
  6
CONTINUOUS
 62
    4
 10
2878.2482789441929
 20
124.43184884402702
 11
2878.2877528230483
 21
124.88303734393865
  0
LINE
  8
_0-0_
  6
CONTINUOUS
 62
    4
 10
2878.2877528230483
 20
124.88303734393865
 11
2878.2877528230483
 21
124.88303734393867
  0
LINE
  8
_0-0_
  6
CONTINUOUS
 62
    4
 10
2878.2877528230483
 20
1524.8830373439387
 11
2878.2877528230483
 21
1524.8830373439387
  0
LINE
  8
_0-0_
  6
CONTINUOUS
 62
    4
 10
2878.2877528230483
 20
1524.8830373439387
 11
2878.2482789441929
 21
1525.3342258438504
  0
LINE
  8
_0-0_
  6
CONTINUOUS
 62
    4
 10
2878.2482789441929
 20
1525.3342258438504
 11
2878.1310567014602
 21
1525.7717052095045
  0
LINE
  8
_0-0_
  6
CONTINUOUS
 62
    4
 10
2878.1310567014602
 20
1525.7717052095045
 11
2877.9396478333792
 21
1526.1821828517511
  0
LINE
  8
_0-0_
  6
CONTINUOUS
 62
    4
 10
2877.9396478333792
 20
1526.1821828517511
 11
2877.6798682015487
 21
1526.5531866151423
  0
LINE
  8
_0-0_
  6
CONTINUOUS
 62
    4
 10
2877.6798682015487
 20
1526.5531866151423
 11
2877.359611078627
 21
1526.8734437380642
  0
LINE
  8
_0-0_
  6
CONTINUOUS
 62
    4
 10
2877.359611078627
 20
1526.8734437380642
 11
2876.9886073152361
 21
1527.1332233698947
  0
LINE
  8
_0-0_
  6
CONTINUOUS
 62
    4
 10
2876.9886073152361
 20
1527.1332233698947
 11
2876.5781296729892
 21
1527.3246322379757
  0
LINE
  8
_0-0_
  6
CONTINUOUS
 62
    4
 10
2876.5781296729892
 20
1527.3246322379757
 11
2876.1406503073349
 21
1527.4418544807081
  0
LINE
  8
_0-0_
  6
CONTINUOUS
 62
    4
 10
2876.1406503073349
 20
1527.4418544807081
 11
2875.6894618074234
 21
1527.4813283595636
  0
LINE
  8
_0-0_
  6
CONTINUOUS
 62
    4
 10
2875.6894618074234
 20
1527.4813283595636
 11
2875.2382733075119
 21
1527.4418544807081
  0
LINE
  8
_0-0_
  6
CONTINUOUS
 62
    4
 10
2875.2382733075119
 20
1527.4418544807081
 11
2874.8007939418576
 21
1527.3246322379757
  0
LINE
  8
_0-0_
  6
CONTINUOUS
 62
    4
 10
2874.8007939418576
 20
1527.3246322379757
 11
2874.3903162996112
 21
1527.1332233698947
  0
LINE
  8
_0-0_
  6
CONTINUOUS
 62
    4
 10
2874.3903162996112
 20
1527.1332233698947
 11
2874.0193125362198
 21
1526.8734437380642
  0
LINE
  8
_0-0_
  6
CONTINUOUS
 62
    4
 10
2874.0193125362198
 20
1526.8734437380642
 11
2873.6990554132981
 21
1526.5531866151423
  0
LINE
  8
_0-0_
  6
CONTINUOUS
 62
    4
 10
2873.6990554132981
 20
1526.5531866151423
 11
2873.4392757814676
 21
1526.1821828517511
  0
LINE
  8
_0-0_
  6
CONTINUOUS
 62
    4
 10
2873.4392757814676
 20
1526.1821828517511
 11
2873.2478669133866
 21
1525.7717052095045
  0
LINE
  8
_0-0_
  6
CONTINUOUS
 62
    4
 10
2873.2478669133866
 20
1525.7717052095045
 11
2873.130644670654
 21
1525.3342258438504
  0
LINE
  8
_0-0_
  6
CONTINUOUS
 62
    4
 10
2873.130644670654
 20
1525.3342258438504
 11
2873.0911707917985
 21
1524.8830373439387
  0
LINE
  8
_0-0_
  6
CONTINUOUS
 62
    4
 10
2873.0911707917985
 20
1524.8830373439387
 11
2873.130644670654
 21
1524.4318488440269
  0
LINE
  8
_0-0_
  6
CONTINUOUS
 62
    4
 10
2873.130644670654
 20
1524.4318488440269
 11
2873.2478669133866
 21
1523.9943694783728
  0
LINE
  8
_0-0_
  6
CONTINUOUS
 62
    4
 10
2873.2478669133866
 20
1523.9943694783728
 11
2873.4392757814676
 21
1523.5838918361262
  0
LINE
  8
_0-0_
  6
CONTINUOUS
 62
    4
 10
2873.4392757814676
 20
1523.5838918361262
 11
2873.6990554132981
 21
1523.212888072735
  0
LINE
  8
_0-0_
  6
CONTINUOUS
 62
    4
 10
2873.6990554132981
 20
1523.212888072735
 11
2874.0193125362198
 21
1522.8926309498131
  0
LINE
  8
_0-0_
  6
CONTINUOUS
 62
    4
 10
2874.0193125362198
 20
1522.8926309498131
 11
2874.3903162996107
 21
1522.6328513179826
  0
LINE
  8
_0-0_
  6
CONTINUOUS
 62
    4
 10
2874.3903162996107
 20
1522.6328513179826
 11
2874.8007939418576
 21
1522.4414424499016
  0
LINE
  8
_0-0_
  6
CONTINUOUS
 62
    4
 10
2874.8007939418576
 20
1522.4414424499016
 11
2875.2382733075119
 21
1522.3242202071692
  0
LINE
  8
_0-0_
  6
CONTINUOUS
 62
    4
 10
2875.2382733075119
 20
1522.3242202071692
 11
2875.6894618074234
 21
1522.2847463283138
  0
LINE
  8
_0-0_
  6
CONTINUOUS
 62
    4
 10
2875.6894618074234
 20
1522.2847463283138
 11
2876.1406503073349
 21
1522.3242202071692
  0
LINE
  8
_0-0_
  6
CONTINUOUS
 62
    4
 10
2876.1406503073349
 20
1522.3242202071692
 11
2876.5781296729892
 21
1522.4414424499016
  0
LINE
  8
_0-0_
  6
CONTINUOUS
 62
    4
 10
2876.5781296729892
 20
1522.4414424499016
 11
2876.9886073152356
 21
1522.6328513179826
  0
LINE
  8
_0-0_
  6
CONTINUOUS
 62
    4
 10
2876.9886073152356
 20
1522.6328513179826
 11
2877.359611078627
 21
1522.8926309498131
  0
LINE
  8
_0-0_
  6
CONTINUOUS
 62
    4
 10
2877.359611078627
 20
1522.8926309498131
 11
2877.6798682015487
 21
1523.212888072735
  0
LINE
  8
_0-0_
  6
CONTINUOUS
 62
    4
 10
2877.6798682015487
 20
1523.212888072735
 11
2877.9396478333792
 21
1523.5838918361262
  0
LINE
  8
_0-0_
  6
CONTINUOUS
 62
    4
 10
2877.9396478333792
 20
1523.5838918361262
 11
2878.1310567014602
 21
1523.9943694783728
  0
LINE
  8
_0-0_
  6
CONTINUOUS
 62
    4
 10
2878.1310567014602
 20
1523.9943694783728
 11
2878.2482789441929
 21
1524.4318488440269
  0
LINE
  8
_0-0_
  6
CONTINUOUS
 62
    4
 10
2878.2482789441929
 20
1524.4318488440269
 11
2878.2877528230483
 21
1524.8830373439387
  0
LINE
  8
_0-0_
  6
CONTINUOUS
 62
    4
 10
2878.2877528230483
 20
1524.8830373439387
 11
2878.2877528230483
 21
1524.8830373439387
  0
TEXT
  8
_0-0_
 62
    7
 10
2874.689461807423
 20
789.82574567727204
 40
35.842222222222226
 41
0.9781003937007872
 50
90
  1
1400
  0
LINE
  8
_0-0_
  6
CONTINUOUS
 62
    4
 10
2975.689461807423
 20
74.883037343938668
 11
2975.689461807423
 21
24.883037343938668
  0
LINE
  8
_0-0_
  6
CONTINUOUS
 62
    4
 10
2995.689461807423
 20
74.883037343938668
 11
2995.689461807423
 21
24.883037343938668
  0
LINE
  8
_0-0_
  6
CONTINUOUS
 62
    4
 10
2975.689461807423
 20
24.883037343938668
 11
2995.689461807423
 21
24.883037343938668
  0
LINE
  8
_0-0_
  6
CONTINUOUS
 62
    4
 10
2978.2877528230483
 20
24.883037343938668
 11
2978.2877528230483
 21
24.883037343938668
  0
LINE
  8
_0-0_
  6
CONTINUOUS
 62
    4
 10
2978.2877528230483
 20
24.883037343938668
 11
2978.2482789441929
 21
25.334225843850309
  0
LINE
  8
_0-0_
  6
CONTINUOUS
 62
    4
 10
2978.2482789441929
 20
25.334225843850309
 11
2978.1310567014602
 21
25.771705209504535
  0
LINE
  8
_0-0_
  6
CONTINUOUS
 62
    4
 10
2978.1310567014602
 20
25.771705209504535
 11
2977.9396478333792
 21
26.182182851751179
  0
LINE
  8
_0-0_
  6
CONTINUOUS
 62
    4
 10
2977.9396478333792
 20
26.182182851751179
 11
2977.6798682015487
 21
26.553186615142288
  0
LINE
  8
_0-0_
  6
CONTINUOUS
 62
    4
 10
2977.6798682015487
 20
26.553186615142288
 11
2977.359611078627
 21
26.873443738064182
  0
LINE
  8
_0-0_
  6
CONTINUOUS
 62
    4
 10
2977.359611078627
 20
26.873443738064182
 11
2976.9886073152361
 21
27.133223369894807
  0
LINE
  8
_0-0_
  6
CONTINUOUS
 62
    4
 10
2976.9886073152361
 20
27.133223369894807
 11
2976.5781296729892
 21
27.324632237975823
  0
LINE
  8
_0-0_
  6
CONTINUOUS
 62
    4
 10
2976.5781296729892
 20
27.324632237975823
 11
2976.1406503073349
 21
27.441854480708155
  0
LINE
  8
_0-0_
  6
CONTINUOUS
 62
    4
 10
2976.1406503073349
 20
27.441854480708155
 11
2975.6894618074234
 21
27.48132835956369
  0
LINE
  8
_0-0_
  6
CONTINUOUS
 62
    4
 10
2975.6894618074234
 20
27.48132835956369
 11
2975.2382733075119
 21
27.441854480708155
  0
LINE
  8
_0-0_
  6
CONTINUOUS
 62
    4
 10
2975.2382733075119
 20
27.441854480708155
 11
2974.8007939418576
 21
27.324632237975827
  0
LINE
  8
_0-0_
  6
CONTINUOUS
 62
    4
 10
2974.8007939418576
 20
27.324632237975827
 11
2974.3903162996112
 21
27.133223369894807
  0
LINE
  8
_0-0_
  6
CONTINUOUS
 62
    4
 10
2974.3903162996112
 20
27.133223369894807
 11
2974.0193125362198
 21
26.873443738064182
  0
LINE
  8
_0-0_
  6
CONTINUOUS
 62
    4
 10
2974.0193125362198
 20
26.873443738064182
 11
2973.6990554132981
 21
26.553186615142288
  0
LINE
  8
_0-0_
  6
CONTINUOUS
 62
    4
 10
2973.6990554132981
 20
26.553186615142288
 11
2973.4392757814676
 21
26.182182851751183
  0
LINE
  8
_0-0_
  6
CONTINUOUS
 62
    4
 10
2973.4392757814676
 20
26.182182851751183
 11
2973.2478669133866
 21
25.771705209504539
  0
LINE
  8
_0-0_
  6
CONTINUOUS
 62
    4
 10
2973.2478669133866
 20
25.771705209504539
 11
2973.130644670654
 21
25.334225843850312
  0
LINE
  8
_0-0_
  6
CONTINUOUS
 62
    4
 10
2973.130644670654
 20
25.334225843850312
 11
2973.0911707917985
 21
24.883037343938671
  0
LINE
  8
_0-0_
  6
CONTINUOUS
 62
    4
 10
2973.0911707917985
 20
24.883037343938671
 11
2973.130644670654
 21
24.43184884402703
  0
LINE
  8
_0-0_
  6
CONTINUOUS
 62
    4
 10
2973.130644670654
 20
24.43184884402703
 11
2973.2478669133866
 21
23.994369478372803
  0
LINE
  8
_0-0_
  6
CONTINUOUS
 62
    4
 10
2973.2478669133866
 20
23.994369478372803
 11
2973.4392757814676
 21
23.58389183612616
  0
LINE
  8
_0-0_
  6
CONTINUOUS
 62
    4
 10
2973.4392757814676
 20
23.58389183612616
 11
2973.6990554132981
 21
23.212888072735055
  0
LINE
  8
_0-0_
  6
CONTINUOUS
 62
    4
 10
2973.6990554132981
 20
23.212888072735055
 11
2974.0193125362198
 21
22.892630949813157
  0
LINE
  8
_0-0_
  6
CONTINUOUS
 62
    4
 10
2974.0193125362198
 20
22.892630949813157
 11
2974.3903162996107
 21
22.632851317982531
  0
LINE
  8
_0-0_
  6
CONTINUOUS
 62
    4
 10
2974.3903162996107
 20
22.632851317982531
 11
2974.8007939418576
 21
22.441442449901512
  0
LINE
  8
_0-0_
  6
CONTINUOUS
 62
    4
 10
2974.8007939418576
 20
22.441442449901512
 11
2975.2382733075119
 21
22.324220207169184
  0
LINE
  8
_0-0_
  6
CONTINUOUS
 62
    4
 10
2975.2382733075119
 20
22.324220207169184
 11
2975.6894618074234
 21
22.284746328313645
  0
LINE
  8
_0-0_
  6
CONTINUOUS
 62
    4
 10
2975.6894618074234
 20
22.284746328313645
 11
2976.1406503073349
 21
22.32422020716918
  0
LINE
  8
_0-0_
  6
CONTINUOUS
 62
    4
 10
2976.1406503073349
 20
22.32422020716918
 11
2976.5781296729892
 21
22.441442449901508
  0
LINE
  8
_0-0_
  6
CONTINUOUS
 62
    4
 10
2976.5781296729892
 20
22.441442449901508
 11
2976.9886073152356
 21
22.632851317982524
  0
LINE
  8
_0-0_
  6
CONTINUOUS
 62
    4
 10
2976.9886073152356
 20
22.632851317982524
 11
2977.359611078627
 21
22.892630949813146
  0
LINE
  8
_0-0_
  6
CONTINUOUS
 62
    4
 10
2977.359611078627
 20
22.892630949813146
 11
2977.6798682015487
 21
23.212888072735041
  0
LINE
  8
_0-0_
  6
CONTINUOUS
 62
    4
 10
2977.6798682015487
 20
23.212888072735041
 11
2977.9396478333792
 21
23.583891836126146
  0
LINE
  8
_0-0_
  6
CONTINUOUS
 62
    4
 10
2977.9396478333792
 20
23.583891836126146
 11
2978.1310567014602
 21
23.994369478372789
  0
LINE
  8
_0-0_
  6
CONTINUOUS
 62
    4
 10
2978.1310567014602
 20
23.994369478372789
 11
2978.2482789441929
 21
24.431848844027012
  0
LINE
  8
_0-0_
  6
CONTINUOUS
 62
    4
 10
2978.2482789441929
 20
24.431848844027012
 11
2978.2877528230483
 21
24.883037343938657
  0
LINE
  8
_0-0_
  6
CONTINUOUS
 62
    4
 10
2978.2877528230483
 20
24.883037343938657
 11
2978.2877528230483
 21
24.883037343938668
  0
LINE
  8
_0-0_
  6
CONTINUOUS
 62
    4
 10
2998.2877528230483
 20
24.883037343938668
 11
2998.2877528230483
 21
24.883037343938668
  0
LINE
  8
_0-0_
  6
CONTINUOUS
 62
    4
 10
2998.2877528230483
 20
24.883037343938668
 11
2998.2482789441929
 21
25.334225843850309
  0
LINE
  8
_0-0_
  6
CONTINUOUS
 62
    4
 10
2998.2482789441929
 20
25.334225843850309
 11
2998.1310567014602
 21
25.771705209504535
  0
LINE
  8
_0-0_
  6
CONTINUOUS
 62
    4
 10
2998.1310567014602
 20
25.771705209504535
 11
2997.9396478333792
 21
26.182182851751179
  0
LINE
  8
_0-0_
  6
CONTINUOUS
 62
    4
 10
2997.9396478333792
 20
26.182182851751179
 11
2997.6798682015487
 21
26.553186615142288
  0
LINE
  8
_0-0_
  6
CONTINUOUS
 62
    4
 10
2997.6798682015487
 20
26.553186615142288
 11
2997.359611078627
 21
26.873443738064182
  0
LINE
  8
_0-0_
  6
CONTINUOUS
 62
    4
 10
2997.359611078627
 20
26.873443738064182
 11
2996.9886073152361
 21
27.133223369894807
  0
LINE
  8
_0-0_
  6
CONTINUOUS
 62
    4
 10
2996.9886073152361
 20
27.133223369894807
 11
2996.5781296729892
 21
27.324632237975823
  0
LINE
  8
_0-0_
  6
CONTINUOUS
 62
    4
 10
2996.5781296729892
 20
27.324632237975823
 11
2996.1406503073349
 21
27.441854480708155
  0
LINE
  8
_0-0_
  6
CONTINUOUS
 62
    4
 10
2996.1406503073349
 20
27.441854480708155
 11
2995.6894618074234
 21
27.48132835956369
  0
LINE
  8
_0-0_
  6
CONTINUOUS
 62
    4
 10
2995.6894618074234
 20
27.48132835956369
 11
2995.2382733075119
 21
27.441854480708155
  0
LINE
  8
_0-0_
  6
CONTINUOUS
 62
    4
 10
2995.2382733075119
 20
27.441854480708155
 11
2994.8007939418576
 21
27.324632237975827
  0
LINE
  8
_0-0_
  6
CONTINUOUS
 62
    4
 10
2994.8007939418576
 20
27.324632237975827
 11
2994.3903162996112
 21
27.133223369894807
  0
LINE
  8
_0-0_
  6
CONTINUOUS
 62
    4
 10
2994.3903162996112
 20
27.133223369894807
 11
2994.0193125362198
 21
26.873443738064182
  0
LINE
  8
_0-0_
  6
CONTINUOUS
 62
    4
 10
2994.0193125362198
 20
26.873443738064182
 11
2993.6990554132981
 21
26.553186615142288
  0
LINE
  8
_0-0_
  6
CONTINUOUS
 62
    4
 10
2993.6990554132981
 20
26.553186615142288
 11
2993.4392757814676
 21
26.182182851751183
  0
LINE
  8
_0-0_
  6
CONTINUOUS
 62
    4
 10
2993.4392757814676
 20
26.182182851751183
 11
2993.2478669133866
 21
25.771705209504539
  0
LINE
  8
_0-0_
  6
CONTINUOUS
 62
    4
 10
2993.2478669133866
 20
25.771705209504539
 11
2993.130644670654
 21
25.334225843850312
  0
LINE
  8
_0-0_
  6
CONTINUOUS
 62
    4
 10
2993.130644670654
 20
25.334225843850312
 11
2993.0911707917985
 21
24.883037343938671
  0
LINE
  8
_0-0_
  6
CONTINUOUS
 62
    4
 10
2993.0911707917985
 20
24.883037343938671
 11
2993.130644670654
 21
24.43184884402703
  0
LINE
  8
_0-0_
  6
CONTINUOUS
 62
    4
 10
2993.130644670654
 20
24.43184884402703
 11
2993.2478669133866
 21
23.994369478372803
  0
LINE
  8
_0-0_
  6
CONTINUOUS
 62
    4
 10
2993.2478669133866
 20
23.994369478372803
 11
2993.4392757814676
 21
23.58389183612616
  0
LINE
  8
_0-0_
  6
CONTINUOUS
 62
    4
 10
2993.4392757814676
 20
23.58389183612616
 11
2993.6990554132981
 21
23.212888072735055
  0
LINE
  8
_0-0_
  6
CONTINUOUS
 62
    4
 10
2993.6990554132981
 20
23.212888072735055
 11
2994.0193125362198
 21
22.892630949813157
  0
LINE
  8
_0-0_
  6
CONTINUOUS
 62
    4
 10
2994.0193125362198
 20
22.892630949813157
 11
2994.3903162996107
 21
22.632851317982531
  0
LINE
  8
_0-0_
  6
CONTINUOUS
 62
    4
 10
2994.3903162996107
 20
22.632851317982531
 11
2994.8007939418576
 21
22.441442449901512
  0
LINE
  8
_0-0_
  6
CONTINUOUS
 62
    4
 10
2994.8007939418576
 20
22.441442449901512
 11
2995.2382733075119
 21
22.324220207169184
  0
LINE
  8
_0-0_
  6
CONTINUOUS
 62
    4
 10
2995.2382733075119
 20
22.324220207169184
 11
2995.6894618074234
 21
22.284746328313645
  0
LINE
  8
_0-0_
  6
CONTINUOUS
 62
    4
 10
2995.6894618074234
 20
22.284746328313645
 11
2996.1406503073349
 21
22.32422020716918
  0
LINE
  8
_0-0_
  6
CONTINUOUS
 62
    4
 10
2996.1406503073349
 20
22.32422020716918
 11
2996.5781296729892
 21
22.441442449901508
  0
LINE
  8
_0-0_
  6
CONTINUOUS
 62
    4
 10
2996.5781296729892
 20
22.441442449901508
 11
2996.9886073152356
 21
22.632851317982524
  0
LINE
  8
_0-0_
  6
CONTINUOUS
 62
    4
 10
2996.9886073152356
 20
22.632851317982524
 11
2997.359611078627
 21
22.892630949813146
  0
LINE
  8
_0-0_
  6
CONTINUOUS
 62
    4
 10
2997.359611078627
 20
22.892630949813146
 11
2997.6798682015487
 21
23.212888072735041
  0
LINE
  8
_0-0_
  6
CONTINUOUS
 62
    4
 10
2997.6798682015487
 20
23.212888072735041
 11
2997.9396478333792
 21
23.583891836126146
  0
LINE
  8
_0-0_
  6
CONTINUOUS
 62
    4
 10
2997.9396478333792
 20
23.583891836126146
 11
2998.1310567014602
 21
23.994369478372789
  0
LINE
  8
_0-0_
  6
CONTINUOUS
 62
    4
 10
2998.1310567014602
 20
23.994369478372789
 11
2998.2482789441929
 21
24.431848844027012
  0
LINE
  8
_0-0_
  6
CONTINUOUS
 62
    4
 10
2998.2482789441929
 20
24.431848844027012
 11
2998.2877528230483
 21
24.883037343938657
  0
LINE
  8
_0-0_
  6
CONTINUOUS
 62
    4
 10
2998.2877528230483
 20
24.883037343938657
 11
2998.2877528230483
 21
24.883037343938668
  0
TEXT
  8
_0-0_
 62
    7
 10
2968.1608159740899
 20
25.883037343938668
 40
35.842222222222226
 41
0.9781003937007872
 50
0
  1
20
  0
LINE
  8
_0-0_
  6
CONTINUOUS
 62
    4
 10
2825.689461807423
 20
1624.8830373439387
 11
2875.689461807423
 21
1624.8830373439387
  0
LINE
  8
_0-0_
  6
CONTINUOUS
 62
    4
 10
2825.689461807423
 20
1644.8830373439387
 11
2875.689461807423
 21
1644.8830373439387
  0
LINE
  8
_0-0_
  6
CONTINUOUS
 62
    4
 10
2875.689461807423
 20
1624.8830373439387
 11
2875.689461807423
 21
1644.8830373439387
  0
LINE
  8
_0-0_
  6
CONTINUOUS
 62
    4
 10
2878.2877528230483
 20
1624.8830373439387
 11
2878.2877528230483
 21
1624.8830373439387
  0
LINE
  8
_0-0_
  6
CONTINUOUS
 62
    4
 10
2878.2877528230483
 20
1624.8830373439387
 11
2878.2482789441929
 21
1625.3342258438504
  0
LINE
  8
_0-0_
  6
CONTINUOUS
 62
    4
 10
2878.2482789441929
 20
1625.3342258438504
 11
2878.1310567014602
 21
1625.7717052095045
  0
LINE
  8
_0-0_
  6
CONTINUOUS
 62
    4
 10
2878.1310567014602
 20
1625.7717052095045
 11
2877.9396478333792
 21
1626.1821828517511
  0
LINE
  8
_0-0_
  6
CONTINUOUS
 62
    4
 10
2877.9396478333792
 20
1626.1821828517511
 11
2877.6798682015487
 21
1626.5531866151423
  0
LINE
  8
_0-0_
  6
CONTINUOUS
 62
    4
 10
2877.6798682015487
 20
1626.5531866151423
 11
2877.359611078627
 21
1626.8734437380642
  0
LINE
  8
_0-0_
  6
CONTINUOUS
 62
    4
 10
2877.359611078627
 20
1626.8734437380642
 11
2876.9886073152361
 21
1627.1332233698947
  0
LINE
  8
_0-0_
  6
CONTINUOUS
 62
    4
 10
2876.9886073152361
 20
1627.1332233698947
 11
2876.5781296729892
 21
1627.3246322379757
  0
LINE
  8
_0-0_
  6
CONTINUOUS
 62
    4
 10
2876.5781296729892
 20
1627.3246322379757
 11
2876.1406503073349
 21
1627.4418544807081
  0
LINE
  8
_0-0_
  6
CONTINUOUS
 62
    4
 10
2876.1406503073349
 20
1627.4418544807081
 11
2875.6894618074234
 21
1627.4813283595636
  0
LINE
  8
_0-0_
  6
CONTINUOUS
 62
    4
 10
2875.6894618074234
 20
1627.4813283595636
 11
2875.2382733075119
 21
1627.4418544807081
  0
LINE
  8
_0-0_
  6
CONTINUOUS
 62
    4
 10
2875.2382733075119
 20
1627.4418544807081
 11
2874.8007939418576
 21
1627.3246322379757
  0
LINE
  8
_0-0_
  6
CONTINUOUS
 62
    4
 10
2874.8007939418576
 20
1627.3246322379757
 11
2874.3903162996112
 21
1627.1332233698947
  0
LINE
  8
_0-0_
  6
CONTINUOUS
 62
    4
 10
2874.3903162996112
 20
1627.1332233698947
 11
2874.0193125362198
 21
1626.8734437380642
  0
LINE
  8
_0-0_
  6
CONTINUOUS
 62
    4
 10
2874.0193125362198
 20
1626.8734437380642
 11
2873.6990554132981
 21
1626.5531866151423
  0
LINE
  8
_0-0_
  6
CONTINUOUS
 62
    4
 10
2873.6990554132981
 20
1626.5531866151423
 11
2873.4392757814676
 21
1626.1821828517511
  0
LINE
  8
_0-0_
  6
CONTINUOUS
 62
    4
 10
2873.4392757814676
 20
1626.1821828517511
 11
2873.2478669133866
 21
1625.7717052095045
  0
LINE
  8
_0-0_
  6
CONTINUOUS
 62
    4
 10
2873.2478669133866
 20
1625.7717052095045
 11
2873.130644670654
 21
1625.3342258438504
  0
LINE
  8
_0-0_
  6
CONTINUOUS
 62
    4
 10
2873.130644670654
 20
1625.3342258438504
 11
2873.0911707917985
 21
1624.8830373439387
  0
LINE
  8
_0-0_
  6
CONTINUOUS
 62
    4
 10
2873.0911707917985
 20
1624.8830373439387
 11
2873.130644670654
 21
1624.4318488440269
  0
LINE
  8
_0-0_
  6
CONTINUOUS
 62
    4
 10
2873.130644670654
 20
1624.4318488440269
 11
2873.2478669133866
 21
1623.9943694783728
  0
LINE
  8
_0-0_
  6
CONTINUOUS
 62
    4
 10
2873.2478669133866
 20
1623.9943694783728
 11
2873.4392757814676
 21
1623.5838918361262
  0
LINE
  8
_0-0_
  6
CONTINUOUS
 62
    4
 10
2873.4392757814676
 20
1623.5838918361262
 11
2873.6990554132981
 21
1623.212888072735
  0
LINE
  8
_0-0_
  6
CONTINUOUS
 62
    4
 10
2873.6990554132981
 20
1623.212888072735
 11
2874.0193125362198
 21
1622.8926309498131
  0
LINE
  8
_0-0_
  6
CONTINUOUS
 62
    4
 10
2874.0193125362198
 20
1622.8926309498131
 11
2874.3903162996107
 21
1622.6328513179826
  0
LINE
  8
_0-0_
  6
CONTINUOUS
 62
    4
 10
2874.3903162996107
 20
1622.6328513179826
 11
2874.8007939418576
 21
1622.4414424499016
  0
LINE
  8
_0-0_
  6
CONTINUOUS
 62
    4
 10
2874.8007939418576
 20
1622.4414424499016
 11
2875.2382733075119
 21
1622.3242202071692
  0
LINE
  8
_0-0_
  6
CONTINUOUS
 62
    4
 10
2875.2382733075119
 20
1622.3242202071692
 11
2875.6894618074234
 21
1622.2847463283138
  0
LINE
  8
_0-0_
  6
CONTINUOUS
 62
    4
 10
2875.6894618074234
 20
1622.2847463283138
 11
2876.1406503073349
 21
1622.3242202071692
  0
LINE
  8
_0-0_
  6
CONTINUOUS
 62
    4
 10
2876.1406503073349
 20
1622.3242202071692
 11
2876.5781296729892
 21
1622.4414424499016
  0
LINE
  8
_0-0_
  6
CONTINUOUS
 62
    4
 10
2876.5781296729892
 20
1622.4414424499016
 11
2876.9886073152356
 21
1622.6328513179826
  0
LINE
  8
_0-0_
  6
CONTINUOUS
 62
    4
 10
2876.9886073152356
 20
1622.6328513179826
 11
2877.359611078627
 21
1622.8926309498131
  0
LINE
  8
_0-0_
  6
CONTINUOUS
 62
    4
 10
2877.359611078627
 20
1622.8926309498131
 11
2877.6798682015487
 21
1623.212888072735
  0
LINE
  8
_0-0_
  6
CONTINUOUS
 62
    4
 10
2877.6798682015487
 20
1623.212888072735
 11
2877.9396478333792
 21
1623.5838918361262
  0
LINE
  8
_0-0_
  6
CONTINUOUS
 62
    4
 10
2877.9396478333792
 20
1623.5838918361262
 11
2878.1310567014602
 21
1623.9943694783728
  0
LINE
  8
_0-0_
  6
CONTINUOUS
 62
    4
 10
2878.1310567014602
 20
1623.9943694783728
 11
2878.2482789441929
 21
1624.4318488440269
  0
LINE
  8
_0-0_
  6
CONTINUOUS
 62
    4
 10
2878.2482789441929
 20
1624.4318488440269
 11
2878.2877528230483
 21
1624.8830373439387
  0
LINE
  8
_0-0_
  6
CONTINUOUS
 62
    4
 10
2878.2877528230483
 20
1624.8830373439387
 11
2878.2877528230483
 21
1624.8830373439387
  0
LINE
  8
_0-0_
  6
CONTINUOUS
 62
    4
 10
2878.2877528230483
 20
1644.8830373439387
 11
2878.2877528230483
 21
1644.8830373439387
  0
LINE
  8
_0-0_
  6
CONTINUOUS
 62
    4
 10
2878.2877528230483
 20
1644.8830373439387
 11
2878.2482789441929
 21
1645.3342258438504
  0
LINE
  8
_0-0_
  6
CONTINUOUS
 62
    4
 10
2878.2482789441929
 20
1645.3342258438504
 11
2878.1310567014602
 21
1645.7717052095045
  0
LINE
  8
_0-0_
  6
CONTINUOUS
 62
    4
 10
2878.1310567014602
 20
1645.7717052095045
 11
2877.9396478333792
 21
1646.1821828517511
  0
LINE
  8
_0-0_
  6
CONTINUOUS
 62
    4
 10
2877.9396478333792
 20
1646.1821828517511
 11
2877.6798682015487
 21
1646.5531866151423
  0
LINE
  8
_0-0_
  6
CONTINUOUS
 62
    4
 10
2877.6798682015487
 20
1646.5531866151423
 11
2877.359611078627
 21
1646.8734437380642
  0
LINE
  8
_0-0_
  6
CONTINUOUS
 62
    4
 10
2877.359611078627
 20
1646.8734437380642
 11
2876.9886073152361
 21
1647.1332233698947
  0
LINE
  8
_0-0_
  6
CONTINUOUS
 62
    4
 10
2876.9886073152361
 20
1647.1332233698947
 11
2876.5781296729892
 21
1647.3246322379757
  0
LINE
  8
_0-0_
  6
CONTINUOUS
 62
    4
 10
2876.5781296729892
 20
1647.3246322379757
 11
2876.1406503073349
 21
1647.4418544807081
  0
LINE
  8
_0-0_
  6
CONTINUOUS
 62
    4
 10
2876.1406503073349
 20
1647.4418544807081
 11
2875.6894618074234
 21
1647.4813283595636
  0
LINE
  8
_0-0_
  6
CONTINUOUS
 62
    4
 10
2875.6894618074234
 20
1647.4813283595636
 11
2875.2382733075119
 21
1647.4418544807081
  0
LINE
  8
_0-0_
  6
CONTINUOUS
 62
    4
 10
2875.2382733075119
 20
1647.4418544807081
 11
2874.8007939418576
 21
1647.3246322379757
  0
LINE
  8
_0-0_
  6
CONTINUOUS
 62
    4
 10
2874.8007939418576
 20
1647.3246322379757
 11
2874.3903162996112
 21
1647.1332233698947
  0
LINE
  8
_0-0_
  6
CONTINUOUS
 62
    4
 10
2874.3903162996112
 20
1647.1332233698947
 11
2874.0193125362198
 21
1646.8734437380642
  0
LINE
  8
_0-0_
  6
CONTINUOUS
 62
    4
 10
2874.0193125362198
 20
1646.8734437380642
 11
2873.6990554132981
 21
1646.5531866151423
  0
LINE
  8
_0-0_
  6
CONTINUOUS
 62
    4
 10
2873.6990554132981
 20
1646.5531866151423
 11
2873.4392757814676
 21
1646.1821828517511
  0
LINE
  8
_0-0_
  6
CONTINUOUS
 62
    4
 10
2873.4392757814676
 20
1646.1821828517511
 11
2873.2478669133866
 21
1645.7717052095045
  0
LINE
  8
_0-0_
  6
CONTINUOUS
 62
    4
 10
2873.2478669133866
 20
1645.7717052095045
 11
2873.130644670654
 21
1645.3342258438504
  0
LINE
  8
_0-0_
  6
CONTINUOUS
 62
    4
 10
2873.130644670654
 20
1645.3342258438504
 11
2873.0911707917985
 21
1644.8830373439387
  0
LINE
  8
_0-0_
  6
CONTINUOUS
 62
    4
 10
2873.0911707917985
 20
1644.8830373439387
 11
2873.130644670654
 21
1644.4318488440269
  0
LINE
  8
_0-0_
  6
CONTINUOUS
 62
    4
 10
2873.130644670654
 20
1644.4318488440269
 11
2873.2478669133866
 21
1643.9943694783728
  0
LINE
  8
_0-0_
  6
CONTINUOUS
 62
    4
 10
2873.2478669133866
 20
1643.9943694783728
 11
2873.4392757814676
 21
1643.5838918361262
  0
LINE
  8
_0-0_
  6
CONTINUOUS
 62
    4
 10
2873.4392757814676
 20
1643.5838918361262
 11
2873.6990554132981
 21
1643.212888072735
  0
LINE
  8
_0-0_
  6
CONTINUOUS
 62
    4
 10
2873.6990554132981
 20
1643.212888072735
 11
2874.0193125362198
 21
1642.8926309498131
  0
LINE
  8
_0-0_
  6
CONTINUOUS
 62
    4
 10
2874.0193125362198
 20
1642.8926309498131
 11
2874.3903162996107
 21
1642.6328513179826
  0
LINE
  8
_0-0_
  6
CONTINUOUS
 62
    4
 10
2874.3903162996107
 20
1642.6328513179826
 11
2874.8007939418576
 21
1642.4414424499016
  0
LINE
  8
_0-0_
  6
CONTINUOUS
 62
    4
 10
2874.8007939418576
 20
1642.4414424499016
 11
2875.2382733075119
 21
1642.3242202071692
  0
LINE
  8
_0-0_
  6
CONTINUOUS
 62
    4
 10
2875.2382733075119
 20
1642.3242202071692
 11
2875.6894618074234
 21
1642.2847463283138
  0
LINE
  8
_0-0_
  6
CONTINUOUS
 62
    4
 10
2875.6894618074234
 20
1642.2847463283138
 11
2876.1406503073349
 21
1642.3242202071692
  0
LINE
  8
_0-0_
  6
CONTINUOUS
 62
    4
 10
2876.1406503073349
 20
1642.3242202071692
 11
2876.5781296729892
 21
1642.4414424499016
  0
LINE
  8
_0-0_
  6
CONTINUOUS
 62
    4
 10
2876.5781296729892
 20
1642.4414424499016
 11
2876.9886073152356
 21
1642.6328513179826
  0
LINE
  8
_0-0_
  6
CONTINUOUS
 62
    4
 10
2876.9886073152356
 20
1642.6328513179826
 11
2877.359611078627
 21
1642.8926309498131
  0
LINE
  8
_0-0_
  6
CONTINUOUS
 62
    4
 10
2877.359611078627
 20
1642.8926309498131
 11
2877.6798682015487
 21
1643.212888072735
  0
LINE
  8
_0-0_
  6
CONTINUOUS
 62
    4
 10
2877.6798682015487
 20
1643.212888072735
 11
2877.9396478333792
 21
1643.5838918361262
  0
LINE
  8
_0-0_
  6
CONTINUOUS
 62
    4
 10
2877.9396478333792
 20
1643.5838918361262
 11
2878.1310567014602
 21
1643.9943694783728
  0
LINE
  8
_0-0_
  6
CONTINUOUS
 62
    4
 10
2878.1310567014602
 20
1643.9943694783728
 11
2878.2482789441929
 21
1644.4318488440269
  0
LINE
  8
_0-0_
  6
CONTINUOUS
 62
    4
 10
2878.2482789441929
 20
1644.4318488440269
 11
2878.2877528230483
 21
1644.8830373439387
  0
LINE
  8
_0-0_
  6
CONTINUOUS
 62
    4
 10
2878.2877528230483
 20
1644.8830373439387
 11
2878.2877528230483
 21
1644.8830373439387
  0
TEXT
  8
_0-0_
 62
    7
 10
2874.6894618074234
 20
1617.3543915106052
 40
35.842222222222226
 41
0.9781003937007872
 50
90
  1
20
  0
TEXT
  8
_0-0_
 62
    7
 10
2240.3134659927546
 20
375.38388215300114
 40
43.010666666666651
 41
0.9017549564116986
 50
0
  1
丁番部は幅20mm
  0
LINE
  8
_0-0_
  6
CONTINUOUS
 62
    4
 10
2177.4967838310713
 20
325.83979036842061
 11
2218.517188548667
 21
396.88921548633448
  0
LINE
  8
_0-0_
  6
CONTINUOUS
 62
    4
 10
2196.090874343321
 20
344.43388088067007
 11
2177.4967838310713
 21
325.83979036842061
  0
LINE
  8
_0-0_
  6
CONTINUOUS
 62
    4
 10
2177.4967838310713
 20
325.83979036842061
 11
2184.3026933188221
 21
351.23979036842059
  0
LINE
  8
_0-0_
  6
CONTINUOUS
 62
    4
 10
2218.517188548667
 20
396.88921548633448
 11
2240.3134659927546
 21
396.88921548633448
  0
ENDSEC
  0
EOF
