  0
SECTION
  2
HEADER
  9
$ACADVER
  1
AC1009
  9
$DWGCODEPAGE
  3
dos932
  9
$INSBASE
 10
0.0
 20
0.0
 30
0.0
  9
$EXTMIN
 10
18372.79582014202
 20
-1294.073134153732
 30
0.0
  9
$EXTMAX
 10
22387.83499125779
 20
1325.0
 30
0.0
  9
$LIMMIN
 10
0.0
 20
0.0
  9
$LIMMAX
 10
12.0
 20
9.0
  9
$ORTHOMODE
 70
     0
  9
$REGENMODE
 70
     1
  9
$FILLMODE
 70
     1
  9
$QTEXTMODE
 70
     0
  9
$MIRRTEXT
 70
     1
  9
$DRAGMODE
 70
     2
  9
$LTSCALE
 40
254.0
  9
$OSMODE
 70
    37
  9
$ATTMODE
 70
     1
  9
$TEXTSIZE
 40
0.2
  9
$TRACEWID
 40
1.0
  9
$TEXTSTYLE
  7
STANDARD
  9
$CLAYER
  8
___-1
  9
$CELTYPE
  6
BYLAYER
  9
$CECOLOR
 62
   256
  9
$DIMSCALE
 40
1.0
  9
$DIMASZ
 40
0.18
  9
$DIMEXO
 40
0.0625
  9
$DIMDLI
 40
0.38
  9
$DIMRND
 40
0.0
  9
$DIMDLE
 40
0.0
  9
$DIMEXE
 40
0.18
  9
$DIMTP
 40
0.0
  9
$DIMTM
 40
0.0
  9
$DIMTXT
 40
0.18
  9
$DIMCEN
 40
0.09
  9
$DIMTSZ
 40
0.0
  9
$DIMTOL
 70
     0
  9
$DIMLIM
 70
     0
  9
$DIMTIH
 70
     1
  9
$DIMTOH
 70
     1
  9
$DIMSE1
 70
     0
  9
$DIMSE2
 70
     0
  9
$DIMTAD
 70
     0
  9
$DIMZIN
 70
     0
  9
$DIMBLK
  1

  9
$DIMASO
 70
     1
  9
$DIMSHO
 70
     1
  9
$DIMPOST
  1

  9
$DIMAPOST
  1

  9
$DIMALT
 70
     0
  9
$DIMALTD
 70
     2
  9
$DIMALTF
 40
25.4
  9
$DIMLFAC
 40
1.0
  9
$DIMTOFL
 70
     0
  9
$DIMTVP
 40
0.0
  9
$DIMTIX
 70
     0
  9
$DIMSOXD
 70
     0
  9
$DIMSAH
 70
     0
  9
$DIMBLK1
  1

  9
$DIMBLK2
  1

  9
$DIMSTYLE
  2
STANDARD
  9
$DIMCLRD
 70
     0
  9
$DIMCLRE
 70
     0
  9
$DIMCLRT
 70
     0
  9
$DIMTFAC
 40
1.0
  9
$DIMGAP
 40
0.09
  9
$LUNITS
 70
     2
  9
$LUPREC
 70
     2
  9
$SKETCHINC
 40
0.1
  9
$FILLETRAD
 40
0.5
  9
$AUNITS
 70
     0
  9
$AUPREC
 70
     2
  9
$MENU
  1
.
  9
$ELEVATION
 40
0.0
  9
$PELEVATION
 40
0.0
  9
$THICKNESS
 40
0.0
  9
$LIMCHECK
 70
     0
  9
$CHAMFERA
 40
0.0
  9
$CHAMFERB
 40
0.0
  9
$SKPOLY
 70
     0
  9
$TDCREATE
 40
2458869.548171725
  9
$TDUPDATE
 40
2458869.548188923
  9
$TDINDWG
 40
0.0000000116
  9
$TDUSRTIMER
 40
0.0000000116
  9
$USRTIMER
 70
     1
  9
$ANGBASE
 50
0.0
  9
$ANGDIR
 70
     0
  9
$PDMODE
 70
     1
  9
$PDSIZE
 40
-2.0
  9
$PLINEWID
 40
0.0
  9
$COORDS
 70
     1
  9
$SPLFRAME
 70
     0
  9
$SPLINETYPE
 70
     6
  9
$SPLINESEGS
 70
     8
  9
$ATTDIA
 70
     0
  9
$ATTREQ
 70
     1
  9
$HANDLING
 70
     1
  9
$HANDSEED
  5
10D
  9
$SURFTAB1
 70
     6
  9
$SURFTAB2
 70
     6
  9
$SURFTYPE
 70
     6
  9
$SURFU
 70
     6
  9
$SURFV
 70
     6
  9
$UCSNAME
  2

  9
$UCSORG
 10
0.0
 20
0.0
 30
0.0
  9
$UCSXDIR
 10
1.0
 20
0.0
 30
0.0
  9
$UCSYDIR
 10
0.0
 20
1.0
 30
0.0
  9
$PUCSNAME
  2

  9
$PUCSORG
 10
0.0
 20
0.0
 30
0.0
  9
$PUCSXDIR
 10
1.0
 20
0.0
 30
0.0
  9
$PUCSYDIR
 10
0.0
 20
1.0
 30
0.0
  9
$USERI1
 70
     0
  9
$USERI2
 70
     0
  9
$USERI3
 70
     0
  9
$USERI4
 70
     0
  9
$USERI5
 70
     0
  9
$USERR1
 40
0.0
  9
$USERR2
 40
0.0
  9
$USERR3
 40
0.0
  9
$USERR4
 40
0.0
  9
$USERR5
 40
0.0
  9
$WORLDVIEW
 70
     1
  9
$SHADEDGE
 70
     3
  9
$SHADEDIF
 70
    70
  9
$TILEMODE
 70
     1
  9
$MAXACTVP
 70
    64
  9
$PLIMCHECK
 70
     0
  9
$PEXTMIN
 10
1.000000000000000E+20
 20
1.000000000000000E+20
 30
1.000000000000000E+20
  9
$PEXTMAX
 10
-1.000000000000000E+20
 20
-1.000000000000000E+20
 30
-1.000000000000000E+20
  9
$PLIMMIN
 10
-20.0
 20
-7.5
  9
$PLIMMAX
 10
277.0
 20
202.5
  9
$UNITMODE
 70
     0
  9
$VISRETAIN
 70
     1
  9
$PLINEGEN
 70
     0
  9
$PSLTSCALE
 70
     1
  0
ENDSEC
  0
SECTION
  2
TABLES
  0
TABLE
  2
VPORT
 70
     1
  0
VPORT
  2
*ACTIVE
 70
     0
 10
0.0
 20
0.0
 11
1.0
 21
1.0
 12
20380.3154056999
 22
15.46343292313395
 13
0.0
 23
0.0
 14
0.5
 24
0.5
 15
0.5
 25
0.5
 16
0.0
 26
0.0
 36
1.0
 17
0.0
 27
0.0
 37
0.0
 40
2619.073134153732
 41
1.533000021556516
 42
2000.0
 43
0.0
 44
0.0
 50
0.0
 51
0.0
 71
     0
 72
   100
 73
     1
 74
     3
 75
     0
 76
     0
 77
     0
 78
     0
  0
ENDTAB
  0
TABLE
  2
LTYPE
 70
     2
  0
LTYPE
  2
CONTINUOUS
 70
     0
  3
Solid line
 72
    65
 73
     0
 40
0.0
  0
LTYPE
  2
ISO-02___
 70
     0
  3

 72
    65
 73
     2
 40
0.15
 49
0.12
 49
-0.03
  0
ENDTAB
  0
TABLE
  2
LAYER
 70
     2
  0
LAYER
  2
0
 70
     0
 62
     7
  6
CONTINUOUS
  0
LAYER
  2
___-1
 70
     0
 62
     7
  6
CONTINUOUS
  0
ENDTAB
  0
TABLE
  2
STYLE
 70
     3
  0
STYLE
  2
STANDARD
 70
     0
 40
0.0
 41
1.0
 50
0.0
 71
     0
 42
0.2
  3
txt
  4
BIGFONT.SHX
  0
STYLE
  2
MEIRYO_UI
 70
     0
 40
0.0
 41
1.0
 50
0.0
 71
     0
 42
0.2
  3
meiryo.ttc
  4
Meiryo UI
  0
STYLE
  2
MEIRYO_UI-B
 70
     0
 40
0.0
 41
1.0
 50
0.0
 71
     0
 42
0.2
  3
meiryo.ttc
  4
Meiryo UI
  0
ENDTAB
  0
TABLE
  2
VIEW
 70
     0
  0
ENDTAB
  0
TABLE
  2
UCS
 70
     0
  0
ENDTAB
  0
TABLE
  2
APPID
 70
     2
  0
APPID
  2
ACAD
 70
     0
  0
APPID
  2
ACAECLAYERSTANDARD
 70
     0
  0
ENDTAB
  0
TABLE
  2
DIMSTYLE
 70
     1
  0
DIMSTYLE
  2
STANDARD
 70
     0
  3

  4

  5

  6

  7

 40
1.0
 41
0.18
 42
0.0625
 43
0.38
 44
0.18
 45
0.0
 46
0.0
 47
0.0
 48
0.0
140
0.18
141
0.09
142
0.0
143
25.4
144
1.0
145
0.0
146
1.0
147
0.09
 71
     0
 72
     0
 73
     1
 74
     1
 75
     0
 76
     0
 77
     0
 78
     0
170
     0
171
     2
172
     0
173
     0
174
     0
175
     0
176
     0
177
     0
178
     0
  0
ENDTAB
  0
ENDSEC
  0
SECTION
  2
BLOCKS
  0
BLOCK
  8
0
  2
$MODEL_SPACE
 70
     0
 10
0.0
 20
0.0
 30
0.0
  3
$MODEL_SPACE
  1

  0
ENDBLK
  5
21
  8
0
  0
BLOCK
 67
     1
  8
0
  2
$PAPER_SPACE
 70
     0
 10
0.0
 20
0.0
 30
0.0
  3
$PAPER_SPACE
  1

  0
ENDBLK
  5
1D
 67
     1
  8
0
  0
ENDSEC
  0
SECTION
  2
ENTITIES
  0
CIRCLE
  5
74
  8
___-1
  6
CONTINUOUS
 62
     6
 10
19402.10886814234
 20
232.5785859131095
 30
0.0
 40
574.9999999999998
  0
CIRCLE
  5
75
  8
___-1
  6
CONTINUOUS
 62
     6
 10
19402.10886814234
 20
232.5785859131095
 30
0.0
 40
525.0000000000003
  0
POLYLINE
  5
76
  8
___-1
  6
CONTINUOUS
 62
     6
 66
     1
 10
0.0
 20
0.0
 30
0.0
 70
   129
  0
VERTEX
  5
77
  8
___-1
  6
CONTINUOUS
 62
     6
 10
18827.10886814234
 20
-739.4991713834127
 30
0.0
  0
VERTEX
  5
78
  8
___-1
  6
CONTINUOUS
 62
     6
 10
19977.10886814234
 20
-739.4991713834127
 30
0.0
  0
VERTEX
  5
79
  8
___-1
  6
CONTINUOUS
 62
     6
 10
19977.10886814234
 20
-789.4991713834127
 30
0.0
  0
VERTEX
  5
7A
  8
___-1
  6
CONTINUOUS
 62
     6
 10
18827.10886814234
 20
-789.4991713834127
 30
0.0
  0
SEQEND
  5
7B
  8
___-1
  6
CONTINUOUS
 62
     6
  0
POLYLINE
  5
7C
  8
___-1
  6
CONTINUOUS
 62
     6
 66
     1
 10
0.0
 20
0.0
 30
0.0
 70
   129
  0
VERTEX
  5
7D
  8
___-1
  6
CONTINUOUS
 62
     6
 10
18867.10886814234
 20
-704.4991713834127
 30
0.0
  0
VERTEX
  5
7E
  8
___-1
  6
CONTINUOUS
 62
     6
 10
19937.10886814234
 20
-704.4991713834127
 30
0.0
  0
VERTEX
  5
7F
  8
___-1
  6
CONTINUOUS
 62
     6
 10
19937.10886814234
 20
-739.4991713834127
 30
0.0
  0
VERTEX
  5
80
  8
___-1
  6
CONTINUOUS
 62
     6
 10
18867.10886814234
 20
-739.4991713834127
 30
0.0
  0
SEQEND
  5
81
  8
___-1
  6
CONTINUOUS
 62
     6
  0
LINE
  5
82
  8
___-1
  6
CONTINUOUS
 62
     6
 10
18851.50886814234
 20
-739.4991713834127
 30
0.0
 11
18851.50886814234
 21
-303.1464184049619
 31
0.0
  0
LINE
  5
83
  8
___-1
  6
CONTINUOUS
 62
     6
 10
18852.70886814234
 20
-739.4991713834127
 30
0.0
 11
18852.70886814234
 21
-303.1464184049619
 31
0.0
  0
CIRCLE
  5
84
  8
___-1
  6
CONTINUOUS
 62
     6
 10
18852.10886814234
 20
232.5785859131095
 30
0.0
 40
1.500000000000123
  0
CIRCLE
  5
85
  8
___-1
  6
CONTINUOUS
 62
     6
 10
19677.10886814234
 20
708.8925579945508
 30
0.0
 40
1.500000000000123
  0
CIRCLE
  5
86
  8
___-1
  6
CONTINUOUS
 62
     6
 10
19677.10886814234
 20
-409.6315856444082
 30
0.0
 40
1.500000000000025
  0
LINE
  5
87
  8
___-1
  6
CONTINUOUS
 62
     6
 10
19676.50886814234
 20
-739.4991713834127
 30
0.0
 11
19676.50886814234
 21
-302.8615032937556
 31
0.0
  0
LINE
  5
88
  8
___-1
  6
CONTINUOUS
 62
     6
 10
19677.70886814234
 20
-739.4991713834127
 30
0.0
 11
19677.70886814234
 21
-302.8615032937556
 31
0.0
  0
LINE
  5
89
  8
___-1
  6
CONTINUOUS
 62
     6
 10
18827.10886814234
 20
-855.2978485492886
 30
0.0
 11
18827.10886814234
 21
-921.0965257151645
 31
0.0
  0
LINE
  5
8A
  8
___-1
  6
CONTINUOUS
 62
     6
 10
18827.10886814234
 20
-921.0965257151645
 30
0.0
 11
19977.10886814234
 21
-921.0965257151645
 31
0.0
  0
POLYLINE
  5
8B
  8
___-1
  6
CONTINUOUS
 62
     6
 66
     1
 10
0.0
 20
0.0
 30
0.0
 70
   128
  0
VERTEX
  5
8C
  8
___-1
  6
CONTINUOUS
 62
     6
 10
18858.85886814234
 20
-929.6039125748526
 30
0.0
  0
VERTEX
  5
8D
  8
___-1
  6
CONTINUOUS
 62
     6
 10
18827.10886814234
 20
-921.0965257151645
 30
0.0
  0
VERTEX
  5
8E
  8
___-1
  6
CONTINUOUS
 62
     6
 10
18858.85886814234
 20
-912.5891388554763
 30
0.0
  0
SEQEND
  5
8F
  8
___-1
  6
CONTINUOUS
 62
     6
  0
POLYLINE
  5
90
  8
___-1
  6
CONTINUOUS
 62
     6
 66
     1
 10
0.0
 20
0.0
 30
0.0
 70
   128
  0
VERTEX
  5
91
  8
___-1
  6
CONTINUOUS
 62
     6
 10
19945.35886814234
 20
-912.5891388554763
 30
0.0
  0
VERTEX
  5
92
  8
___-1
  6
CONTINUOUS
 62
     6
 10
19977.10886814234
 20
-921.0965257151645
 30
0.0
  0
VERTEX
  5
93
  8
___-1
  6
CONTINUOUS
 62
     6
 10
19945.35886814234
 20
-929.6039125748526
 30
0.0
  0
SEQEND
  5
94
  8
___-1
  6
CONTINUOUS
 62
     6
  0
LINE
  5
95
  8
___-1
  6
CONTINUOUS
 62
     6
 10
19977.10886814234
 20
-855.2978485492886
 30
0.0
 11
19977.10886814234
 21
-921.0965257151645
 31
0.0
  0
TEXT
  5
96
  8
___-1
 62
     6
 10
19218.07186727429
 20
-913.6881923818311
 30
0.0
 40
25.83821614583336
  1
Φ750mm、Φ1150mm
  7
MEIRYO_UI
 11
19218.07186727429
 21
-887.8499762359977
 31
0.0
 73
     3
  0
LINE
  5
97
  8
___-1
  6
CONTINUOUS
 62
     6
 10
18793.35881217025
 20
-789.4991713834127
 30
0.0
 11
18759.60875619816
 21
-789.4991713834127
 31
0.0
  0
LINE
  5
98
  8
___-1
  6
CONTINUOUS
 62
     6
 10
18813.35881217025
 20
-704.4991713834127
 30
0.0
 11
18759.60875619816
 21
-704.4991713834127
 31
0.0
  0
LINE
  5
99
  8
___-1
  6
CONTINUOUS
 62
     6
 10
18759.60875619816
 20
-704.4991713834127
 30
0.0
 11
18759.60875619816
 21
-789.4991713834127
 31
0.0
  0
POLYLINE
  5
9A
  8
___-1
  6
CONTINUOUS
 62
     6
 66
     1
 10
0.0
 20
0.0
 30
0.0
 70
   128
  0
VERTEX
  5
9B
  8
___-1
  6
CONTINUOUS
 62
     6
 10
18751.10136933847
 20
-736.2491713834127
 30
0.0
  0
VERTEX
  5
9C
  8
___-1
  6
CONTINUOUS
 62
     6
 10
18759.60875619816
 20
-704.4991713834127
 30
0.0
  0
VERTEX
  5
9D
  8
___-1
  6
CONTINUOUS
 62
     6
 10
18768.11614305785
 20
-736.2491713834127
 30
0.0
  0
SEQEND
  5
9E
  8
___-1
  6
CONTINUOUS
 62
     6
  0
POLYLINE
  5
9F
  8
___-1
  6
CONTINUOUS
 62
     6
 66
     1
 10
0.0
 20
0.0
 30
0.0
 70
   128
  0
VERTEX
  5
A0
  8
___-1
  6
CONTINUOUS
 62
     6
 10
18768.11614305785
 20
-757.7491713834127
 30
0.0
  0
VERTEX
  5
A1
  8
___-1
  6
CONTINUOUS
 62
     6
 10
18759.60875619816
 20
-789.4991713834127
 30
0.0
  0
VERTEX
  5
A2
  8
___-1
  6
CONTINUOUS
 62
     6
 10
18751.10136933847
 20
-757.7491713834127
 30
0.0
  0
SEQEND
  5
A3
  8
___-1
  6
CONTINUOUS
 62
     6
  0
TEXT
  5
A4
  8
___-1
 62
     6
 10
18742.39887671969
 20
-803.425733642084
 30
0.0
 40
25.83821614583336
  1
85mm
 50
90.0
  7
MEIRYO_UI
 11
18716.56066057385
 21
-803.425733642084
 31
0.0
 73
     3
  0
TEXT
  5
A5
  8
___-1
 62
     6
 10
18893.43060632236
 20
-520.8489589125849
 30
0.0
 40
25.83821614583336
  1
ワイヤーΦ1.2mm
  7
MEIRYO_UI
 11
18893.43060632236
 21
-495.0107427667515
 31
0.0
 73
     3
  0
LINE
  5
A6
  8
___-1
  6
CONTINUOUS
 62
     6
 10
18852.70886814234
 20
-537.9768000752758
 30
0.0
 11
18871.25387650924
 21
-505.8559033570293
 31
0.0
  0
LINE
  5
A7
  8
___-1
  6
CONTINUOUS
 62
     6
 10
18871.25387650924
 20
-505.8559033570293
 30
0.0
 11
18893.43060632236
 21
-505.8559033570293
 31
0.0
  0
TEXT
  5
A8
  8
___-1
 62
     6
 10
19349.19219474697
 20
217.5855303575538
 30
0.0
 40
25.83821614583336
  1
吸音材
  7
MEIRYO_UI
 11
19349.19219474697
 21
243.4237465033872
 31
0.0
 73
     3
  0
LINE
  5
A9
  8
___-1
  6
CONTINUOUS
 62
     6
 10
18857.01687102316
 20
356.8331368006243
 30
0.0
 11
18832.00853278832
 21
400.1488492362383
 31
0.0
  0
LINE
  5
AA
  8
___-1
  6
CONTINUOUS
 62
     6
 10
18832.00853278832
 20
400.1488492362383
 30
0.0
 11
18799.98119331294
 21
400.1488492362383
 31
0.0
  0
LINE
  5
AB
  8
___-1
  6
CONTINUOUS
 62
     6
 10
18850.60886814234
 20
232.5785859131095
 30
0.0
 11
18819.86805333698
 21
285.8232390220686
 31
0.0
  0
LINE
  5
AC
  8
___-1
  6
CONTINUOUS
 62
     6
 10
18819.86805333698
 20
285.8232390220686
 30
0.0
 11
18791.65691887976
 21
285.8232390220686
 31
0.0
  0
TEXT
  5
AD
  8
___-1
 62
     6
 10
18729.42563102869
 20
385.1557936806827
 30
0.0
 40
25.83821614583336
  1
枠材
  7
MEIRYO_UI
 11
18729.42563102869
 21
410.994009826516
 31
0.0
 73
     3
  0
TEXT
  5
AE
  8
___-1
 62
     6
 10
18646.6872873668
 20
270.8301834665129
 30
0.0
 40
25.83821614583336
  1
ワイヤー孔
  7
MEIRYO_UI
 11
18646.6872873668
 21
296.6683996123463
 31
0.0
 73
     3
  0
CIRCLE
  5
AF
  8
___-1
  6
CONTINUOUS
 62
     6
 10
19677.10886814234
 20
-243.7353861683319
 30
0.0
 40
1.500000000000025
  0
TEXT
  5
B0
  8
___-1
 62
     6
 10
19729.37684430955
 20
737.9843292564664
 30
0.0
 40
25.83821614583336
  1
ワイヤー孔
  7
MEIRYO_UI
 11
19729.37684430955
 21
763.8225454022997
 31
0.0
 73
     3
  0
LINE
  5
B1
  8
___-1
  6
CONTINUOUS
 62
     6
 10
19677.10886814234
 20
710.3925579945508
 30
0.0
 11
19701.6952293688
 21
752.9773848120219
 31
0.0
  0
LINE
  5
B2
  8
___-1
  6
CONTINUOUS
 62
     6
 10
19701.6952293688
 20
752.9773848120219
 30
0.0
 11
19729.37684430955
 21
752.9773848120219
 31
0.0
  0
TEXT
  5
B3
  8
___-1
 62
     6
 10
19733.32891190206
 20
-304.6119846168231
 30
0.0
 40
25.83821614583336
  1
ワイヤー孔
  7
MEIRYO_UI
 11
19733.32891190206
 21
-278.7737684709898
 31
0.0
 73
     3
  0
LINE
  5
B4
  8
___-1
  6
CONTINUOUS
 62
     6
 10
19677.10886814234
 20
-245.2353861683319
 30
0.0
 11
19702.73371857917
 21
-289.6189290612675
 31
0.0
  0
LINE
  5
B5
  8
___-1
  6
CONTINUOUS
 62
     6
 10
19702.73371857917
 20
-289.6189290612675
 30
0.0
 11
19733.32891190206
 21
-289.6189290612675
 31
0.0
  0
TEXT
  5
B6
  8
___-1
 62
     6
 10
19718.43060632236
 20
-520.8489589125849
 30
0.0
 40
25.83821614583336
  1
ワイヤーΦ1.2mm
  7
MEIRYO_UI
 11
19718.43060632236
 21
-495.0107427667515
 31
0.0
 73
     3
  0
LINE
  5
B7
  8
___-1
  6
CONTINUOUS
 62
     6
 10
19677.70886814234
 20
-537.9768000752758
 30
0.0
 11
19696.25387650924
 21
-505.8559033570293
 31
0.0
  0
LINE
  5
B8
  8
___-1
  6
CONTINUOUS
 62
     6
 10
19696.25387650924
 20
-505.8559033570293
 30
0.0
 11
19718.43060632236
 21
-505.8559033570293
 31
0.0
  0
CIRCLE
  5
B9
  8
___-1
  6
CONTINUOUS
 62
     6
 10
21538.27735769335
 20
232.5785859131095
 30
0.0
 40
574.9999999999998
  0
POLYLINE
  5
BA
  8
___-1
  6
CONTINUOUS
 62
     6
 66
     1
 10
0.0
 20
0.0
 30
0.0
 70
   129
  0
VERTEX
  5
BB
  8
___-1
  6
CONTINUOUS
 62
     6
 10
20963.27735769335
 20
-729.4991713834127
 30
0.0
  0
VERTEX
  5
BC
  8
___-1
  6
CONTINUOUS
 62
     6
 10
22113.27735769335
 20
-729.4991713834127
 30
0.0
  0
VERTEX
  5
BD
  8
___-1
  6
CONTINUOUS
 62
     6
 10
22113.27735769335
 20
-789.4991713834127
 30
0.0
  0
VERTEX
  5
BE
  8
___-1
  6
CONTINUOUS
 62
     6
 10
20963.27735769335
 20
-789.4991713834127
 30
0.0
  0
SEQEND
  5
BF
  8
___-1
  6
CONTINUOUS
 62
     6
  0
LINE
  5
C0
  8
___-1
  6
CONTINUOUS
 62
     6
 10
21032.67735769334
 20
-729.4991713834127
 30
0.0
 11
21032.67735769334
 21
-303.1464184049618
 31
0.0
  0
LINE
  5
C1
  8
___-1
  6
CONTINUOUS
 62
     6
 10
21033.87735769335
 20
-729.4991713834127
 30
0.0
 11
21033.87735769335
 21
-303.1464184049618
 31
0.0
  0
CIRCLE
  5
C2
  8
___-1
  6
CONTINUOUS
 62
     6
 10
21033.27735769335
 20
232.5785859131095
 30
0.0
 40
1.500000000000123
  0
CIRCLE
  5
C3
  8
___-1
  6
CONTINUOUS
 62
     6
 10
21790.77735769335
 20
669.9214148242509
 30
0.0
 40
1.499999999999926
  0
CIRCLE
  5
C4
  8
___-1
  6
CONTINUOUS
 62
     6
 10
21790.77735769335
 20
-409.6315856444082
 30
0.0
 40
1.500000000000025
  0
LINE
  5
C5
  8
___-1
  6
CONTINUOUS
 62
     6
 10
21790.17735769334
 20
-729.4991713834127
 30
0.0
 11
21790.17735769334
 21
-302.8615032937555
 31
0.0
  0
LINE
  5
C6
  8
___-1
  6
CONTINUOUS
 62
     6
 10
21791.37735769335
 20
-729.4991713834127
 30
0.0
 11
21791.37735769335
 21
-302.8615032937555
 31
0.0
  0
LINE
  5
C7
  8
___-1
  6
CONTINUOUS
 62
     6
 10
20963.27735769335
 20
-855.2978485492886
 30
0.0
 11
20963.27735769335
 21
-921.0965257151645
 31
0.0
  0
LINE
  5
C8
  8
___-1
  6
CONTINUOUS
 62
     6
 10
20963.27735769335
 20
-921.0965257151645
 30
0.0
 11
22113.27735769335
 21
-921.0965257151645
 31
0.0
  0
POLYLINE
  5
C9
  8
___-1
  6
CONTINUOUS
 62
     6
 66
     1
 10
0.0
 20
0.0
 30
0.0
 70
   128
  0
VERTEX
  5
CA
  8
___-1
  6
CONTINUOUS
 62
     6
 10
20995.02735769335
 20
-929.6039125748526
 30
0.0
  0
VERTEX
  5
CB
  8
___-1
  6
CONTINUOUS
 62
     6
 10
20963.27735769335
 20
-921.0965257151645
 30
0.0
  0
VERTEX
  5
CC
  8
___-1
  6
CONTINUOUS
 62
     6
 10
20995.02735769335
 20
-912.5891388554763
 30
0.0
  0
SEQEND
  5
CD
  8
___-1
  6
CONTINUOUS
 62
     6
  0
POLYLINE
  5
CE
  8
___-1
  6
CONTINUOUS
 62
     6
 66
     1
 10
0.0
 20
0.0
 30
0.0
 70
   128
  0
VERTEX
  5
CF
  8
___-1
  6
CONTINUOUS
 62
     6
 10
22081.52735769335
 20
-912.5891388554763
 30
0.0
  0
VERTEX
  5
D0
  8
___-1
  6
CONTINUOUS
 62
     6
 10
22113.27735769335
 20
-921.0965257151645
 30
0.0
  0
VERTEX
  5
D1
  8
___-1
  6
CONTINUOUS
 62
     6
 10
22081.52735769335
 20
-929.6039125748526
 30
0.0
  0
SEQEND
  5
D2
  8
___-1
  6
CONTINUOUS
 62
     6
  0
LINE
  5
D3
  8
___-1
  6
CONTINUOUS
 62
     6
 10
22113.27735769335
 20
-855.2978485492886
 30
0.0
 11
22113.27735769335
 21
-921.0965257151645
 31
0.0
  0
TEXT
  5
D4
  8
___-1
 62
     6
 10
21354.24035682529
 20
-913.6881923818311
 30
0.0
 40
25.83821614583336
  1
Φ750mm、Φ1150mm
  7
MEIRYO_UI
 11
21354.24035682529
 21
-887.8499762359977
 31
0.0
 73
     3
  0
LINE
  5
D5
  8
___-1
  6
CONTINUOUS
 62
     6
 10
20929.52730172126
 20
-789.4991713834127
 30
0.0
 11
20895.77724574917
 21
-789.4991713834127
 31
0.0
  0
LINE
  5
D6
  8
___-1
  6
CONTINUOUS
 62
     6
 10
20949.52730172126
 20
-729.4991713834127
 30
0.0
 11
20895.77724574917
 21
-729.4991713834127
 31
0.0
  0
LINE
  5
D7
  8
___-1
  6
CONTINUOUS
 62
     6
 10
20895.77724574917
 20
-729.4991713834127
 30
0.0
 11
20895.77724574917
 21
-789.4991713834127
 31
0.0
  0
POLYLINE
  5
D8
  8
___-1
  6
CONTINUOUS
 62
     6
 66
     1
 10
0.0
 20
0.0
 30
0.0
 70
   128
  0
VERTEX
  5
D9
  8
___-1
  6
CONTINUOUS
 62
     6
 10
20890.41858898696
 20
-749.4979506802877
 30
0.0
  0
VERTEX
  5
DA
  8
___-1
  6
CONTINUOUS
 62
     6
 10
20895.77724574917
 20
-729.4991713834127
 30
0.0
  0
VERTEX
  5
DB
  8
___-1
  6
CONTINUOUS
 62
     6
 10
20901.13590251137
 20
-749.4979506802877
 30
0.0
  0
SEQEND
  5
DC
  8
___-1
  6
CONTINUOUS
 62
     6
  0
POLYLINE
  5
DD
  8
___-1
  6
CONTINUOUS
 62
     6
 66
     1
 10
0.0
 20
0.0
 30
0.0
 70
   128
  0
VERTEX
  5
DE
  8
___-1
  6
CONTINUOUS
 62
     6
 10
20901.13590251137
 20
-769.5003920865377
 30
0.0
  0
VERTEX
  5
DF
  8
___-1
  6
CONTINUOUS
 62
     6
 10
20895.77724574917
 20
-789.4991713834127
 30
0.0
  0
VERTEX
  5
E0
  8
___-1
  6
CONTINUOUS
 62
     6
 10
20890.41858898696
 20
-769.5003920865377
 30
0.0
  0
SEQEND
  5
E1
  8
___-1
  6
CONTINUOUS
 62
     6
  0
TEXT
  5
E2
  8
___-1
 62
     6
 10
20878.56736627069
 20
-812.3208167598038
 30
0.0
 40
25.83821614583336
  1
60mm
 50
90.0
  7
MEIRYO_UI
 11
20852.72915012486
 21
-812.3208167598038
 31
0.0
 73
     3
  0
TEXT
  5
E3
  8
___-1
 62
     6
 10
21074.59909587336
 20
-520.8489589125849
 30
0.0
 40
25.83821614583336
  1
ワイヤーΦ1.2mm
  7
MEIRYO_UI
 11
21074.59909587336
 21
-495.0107427667515
 31
0.0
 73
     3
  0
LINE
  5
E4
  8
___-1
  6
CONTINUOUS
 62
     6
 10
21033.87735769335
 20
-537.9768000752757
 30
0.0
 11
21052.42236606024
 21
-505.8559033570293
 31
0.0
  0
LINE
  5
E5
  8
___-1
  6
CONTINUOUS
 62
     6
 10
21052.42236606024
 20
-505.8559033570293
 30
0.0
 11
21074.59909587336
 21
-505.8559033570293
 31
0.0
  0
TEXT
  5
E6
  8
___-1
 62
     6
 10
21485.36068429798
 20
217.5855303575539
 30
0.0
 40
25.83821614583336
  1
吸音材
  7
MEIRYO_UI
 11
21485.36068429798
 21
243.4237465033872
 31
0.0
 73
     3
  0
LINE
  5
E7
  8
___-1
  6
CONTINUOUS
 62
     6
 10
21031.77735769335
 20
232.5785859131095
 30
0.0
 11
21001.03654288798
 21
285.8232390220687
 31
0.0
  0
LINE
  5
E8
  8
___-1
  6
CONTINUOUS
 62
     6
 10
21001.03654288798
 20
285.8232390220687
 30
0.0
 11
20927.82540843076
 21
285.8232390220687
 31
0.0
  0
TEXT
  5
E9
  8
___-1
 62
     6
 10
20782.8557769178
 20
270.830183466513
 30
0.0
 40
25.83821614583336
  1
ワイヤー孔
  7
MEIRYO_UI
 11
20782.8557769178
 21
296.6683996123464
 31
0.0
 73
     3
  0
CIRCLE
  5
EA
  8
___-1
  6
CONTINUOUS
 62
     6
 10
21790.77735769335
 20
-204.7642429980322
 30
0.0
 40
1.500000000000025
  0
TEXT
  5
EB
  8
___-1
 62
     6
 10
21865.54533386055
 20
737.9843292564664
 30
0.0
 40
25.83821614583336
  1
ワイヤー孔
  7
MEIRYO_UI
 11
21865.54533386055
 21
763.8225454022997
 31
0.0
 73
     3
  0
LINE
  5
EC
  8
___-1
  6
CONTINUOUS
 62
     6
 10
21792.27735769335
 20
669.9214148242509
 30
0.0
 11
21840.22974432359
 21
752.9773848120219
 31
0.0
  0
LINE
  5
ED
  8
___-1
  6
CONTINUOUS
 62
     6
 10
21840.22974432359
 20
752.9773848120219
 30
0.0
 11
21865.54533386055
 21
752.9773848120219
 31
0.0
  0
TEXT
  5
EE
  8
___-1
 62
     6
 10
21869.49740145307
 20
-304.6119846168231
 30
0.0
 40
25.83821614583336
  1
ワイヤー孔
  7
MEIRYO_UI
 11
21869.49740145307
 21
-278.7737684709897
 31
0.0
 73
     3
  0
LINE
  5
EF
  8
___-1
  6
CONTINUOUS
 62
     6
 10
21792.27735769335
 20
-204.7642429980322
 30
0.0
 11
21841.26823353396
 21
-289.6189290612675
 31
0.0
  0
LINE
  5
F0
  8
___-1
  6
CONTINUOUS
 62
     6
 10
21841.26823353396
 20
-289.6189290612675
 30
0.0
 11
21869.49740145307
 21
-289.6189290612675
 31
0.0
  0
TEXT
  5
F1
  8
___-1
 62
     6
 10
21832.09909587336
 20
-520.8489589125849
 30
0.0
 40
25.83821614583336
  1
ワイヤーΦ1.2mm
  7
MEIRYO_UI
 11
21832.09909587336
 21
-495.0107427667515
 31
0.0
 73
     3
  0
LINE
  5
F2
  8
___-1
  6
CONTINUOUS
 62
     6
 10
21791.37735769335
 20
-537.9768000752757
 30
0.0
 11
21809.92236606024
 21
-505.8559033570293
 31
0.0
  0
LINE
  5
F3
  8
___-1
  6
CONTINUOUS
 62
     6
 10
21809.92236606024
 20
-505.8559033570293
 30
0.0
 11
21832.09909587336
 21
-505.8559033570293
 31
0.0
  0
TEXT
  5
F4
  8
___-1
 62
     6
 10
18372.79582014202
 20
1280.126666666667
 30
0.0
 40
31.005859375
  1
天井吸音(枠LED)750Φ、1150Φ
  7
MEIRYO_UI-B
 11
18372.79582014202
 21
1311.132526041667
 31
0.0
 73
     3
  0
TEXT
  5
F5
  8
___-1
 62
     6
 10
20487.83499125779
 20
1280.126666666667
 30
0.0
 40
31.005859375
  1
天井吸音(枠なし)750Φ、1150Φ
  7
MEIRYO_UI-B
 11
20487.83499125779
 21
1311.132526041667
 31
0.0
 73
     3
  0
POLYLINE
  5
F6
  8
___-1
  6
CONTINUOUS
 62
     1
 66
     1
 10
0.0
 20
0.0
 30
0.0
 70
   129
  0
VERTEX
  5
F7
  8
___-1
  6
CONTINUOUS
 62
     1
 10
18372.79582014202
 20
1325.0
 30
0.0
  0
VERTEX
  5
F8
  8
___-1
  6
CONTINUOUS
 62
     1
 10
20272.79582014202
 20
1325.0
 30
0.0
  0
VERTEX
  5
F9
  8
___-1
  6
CONTINUOUS
 62
     1
 10
20272.79582014202
 20
-1294.073134153732
 30
0.0
  0
VERTEX
  5
FA
  8
___-1
  6
CONTINUOUS
 62
     1
 10
18372.79582014202
 20
-1294.073134153732
 30
0.0
  0
SEQEND
  5
FB
  8
___-1
  6
CONTINUOUS
 62
     1
  0
POLYLINE
  5
FC
  8
___-1
  6
CONTINUOUS
 62
     1
 66
     1
 10
0.0
 20
0.0
 30
0.0
 70
   129
  0
VERTEX
  5
FD
  8
___-1
  6
CONTINUOUS
 62
     1
 10
20487.83499125779
 20
1325.0
 30
0.0
  0
VERTEX
  5
FE
  8
___-1
  6
CONTINUOUS
 62
     1
 10
22387.83499125779
 20
1325.0
 30
0.0
  0
VERTEX
  5
FF
  8
___-1
  6
CONTINUOUS
 62
     1
 10
22387.83499125779
 20
-1294.073134153732
 30
0.0
  0
VERTEX
  5
100
  8
___-1
  6
CONTINUOUS
 62
     1
 10
20487.83499125779
 20
-1294.073134153732
 30
0.0
  0
SEQEND
  5
101
  8
___-1
  6
CONTINUOUS
 62
     1
  0
VIEWPORT
  5
102
 67
     1
  8
0
 10
128.5
 20
97.5
 30
0.0
 40
314.226
 41
222.18
 68
     1
 69
     1
1001
ACAD
1000
MVIEW
1002
{
1070
    16
1010
0.0
1020
0.0
1030
0.0
1010
0.0
1020
0.0
1030
1.0
1040
0.0
1040
222.18
1040
128.5
1040
97.5
1040
50.0
1040
0.0
1040
0.0
1070
     0
1070
   100
1070
     0
1070
     3
1070
     0
1070
     0
1070
     0
1070
     0
1040
0.0
1040
0.0
1040
0.0
1040
10.0
1040
10.0
1040
10.0
1040
10.0
1070
     0
1002
{
1002
}
1002
}
  0
ENDSEC
  0
EOF
