  0
SECTION
  2
HEADER
  9
$ACADVER
  1
AC1009
  9
$INSBASE
 10
0
 20
0
 30
0
  9
$EXTMIN
 10
0
 20
0
  9
$EXTMAX
 10
800000
 20
565856
  9
$LIMMIN
 10
0
 20
0
  9
$LIMMAX
 10
800000
 20
565856
  9
$LTSCALE
 40
8
  0
ENDSEC
  0
SECTION
  2
TABLES
  0
TABLE
  2
LTYPE
 70
     9
  0
LTYPE
  2
CONTINUOUS
 70
    64
  3
実線
 72
    65
 73
     0
 40
0.0
  0
LTYPE
  2
DASHED1
 70
    64
  3
--  --  --  --  --  --  --  --  
 72
    65
 73
     2
 40
2.5
 49
1.25
 49
-1.25
  0
LTYPE
  2
DASHED2
 70
    64
  3
----    ----    ----    ----    
 72
    65
 73
     2
 40
5.0
 49
2.5
 49
-2.5
  0
LTYPE
  2
DASHED3
 70
    64
  3
------  ------  ------  ------  
 72
    65
 73
     2
 40
5.0
 49
3.75
 49
-1.25
  0
LTYPE
  2
CENTER1
 70
    64
  3
----- - ----- - ----- - ----- - 
 72
    65
 73
     4
 40
10.0
 49
6.25
 49
-1.25
 49
1.25
 49
-1.25
  0
LTYPE
  2
CENTER2
 70
    64
  3
----------  --  ----------  --  
 72
    65
 73
     4
 40
20.0
 49
12.5
 49
-2.5
 49
2.5
 49
-2.5
  0
LTYPE
  2
PHANTOM1
 70
    64
  3
--- - - --- - - --- - - --- - - 
 72
    65
 73
     6
 40
10.0
 49
3.25
 49
-1.25
 49
1.25
 49
-1.25
 49
1.25
 49
-1.25
  0
LTYPE
  2
PHANTOM2
 70
    64
  3
--------  -  -  --------  -  -  
 72
    65
 73
     6
 40
20.0
 49
10.0
 49
-2.5
 49
1.25
 49
-2.5
 49
1.25
 49
-2.5
  0
LTYPE
  2
DOT
 70
    64
  3
-   -   -   -   -   -   -   -   
 72
    65
 73
     2
 40
2.5
 49
0.625
 49
-1.875
  0
LTYPE
  2
DUMMY
 70
    64
  3
ダミー
 72
    65
 73
     0
 40
0.0
  0
LTYPE
  2
RAND1
 70
    64
  3
ランダム線1
 72
    65
 73
     4
 40
10.0
 49
1.0
 49
-2.0
 49
3.0
 49
-4.0
  0
LTYPE
  2
RAND2
 70
    64
  3
ランダム線2
 72
    65
 73
     4
 40
14.0
 49
2.0
 49
-3.0
 49
4.0
 49
-5.0
  0
LTYPE
  2
RAND3
 70
    64
  3
ランダム線3
 72
    65
 73
     4
 40
18.0
 49
3.0
 49
-4.0
 49
5.0
 49
-6.0
  0
LTYPE
  2
RAND4
 70
    64
  3
ランダム線4
 72
    65
 73
     4
 40
22.0
 49
4.0
 49
-5.0
 49
6.0
 49
-7.0
  0
LTYPE
  2
RAND5
 70
    64
  3
ランダム線5
 72
    65
 73
     4
 40
26.0
 49
5.0
 49
-6.0
 49
7.0
 49
-8.0
  0
LTYPE
  2
LONG1
 70
    64
  3
----------  --  ----------  --  
 72
    65
 73
     4
 40
40.0
 49
32.5
 49
-2.5
 49
2.5
 49
-2.5
  0
LTYPE
  2
LONG2
 70
    64
  3
--------  -  -  --------  -  -  
 72
    65
 73
     6
 40
40.0
 49
30.0
 49
-2.5
 49
1.25
 49
-2.5
 49
1.25
 49
-2.5
  0
LTYPE
  2
LONG3
 70
    64
  3
+++++++++++++++..+++++++++++++++
 72
    65
 73
     2
 40
40.0
 49
37.5
 49
-2.5
  0
LTYPE
  2
LONG4
 70
    64
  3
+++++++++++++++..+++++++++++++++
 72
    65
 73
     2
 40
80.0
 49
75.0
 49
-5.0
  0
LTYPE
  2
LONG5
 70
    64
  3
----------  --  ----------  --  
 72
    65
 73
     4
 40
60.0
 49
37.5
 49
-7.5
 49
7.5
 49
-7.5
  0
LTYPE
  2
dashed
 70
   64
  3
-------   -------------   ------
 72
   65
 73
    2
 40
7.5
 49
6
 49
-1.5
  0
LTYPE
  2
dashed_spaced
 70
   64
  3
----        --------        ----
 72
   65
 73
    2
 40
12
 49
6
 49
-6
  0
LTYPE
  2
long_dashed_dotted
 70
   64
  3
------------- --- --------------
 72
   65
 73
    4
 40
15.25
 49
12
 49
-1.5
 49
0.25
 49
-1.5
  0
LTYPE
  2
long_dashed_double-dotted
 70
   64
  3
----------- --- --- ------------
 72
   65
 73
    6
 40
17
 49
12
 49
-1.5
 49
0.25
 49
-1.5
 49
0.25
 49
-1.5
  0
LTYPE
  2
long_dashed_triplicate-dotted
 70
   64
  3
--------- --- --- --- ----------
 72
   65
 73
    8
 40
18.75
 49
12
 49
-1.5
 49
0.25
 49
-1.5
 49
0.25
 49
-1.5
 49
0.25
 49
-1.5
  0
LTYPE
  2
dotted
 70
   64
  3
   -       -       -       -    
 72
   65
 73
    2
 40
1.75
 49
0.25
 49
-1.5
  0
LTYPE
  2
chain
 70
   64
  3
-------------- -- --------------
 72
   65
 73
    4
 40
18.5
 49
12
 49
-1.5
 49
3.5
 49
-1.5
  0
LTYPE
  2
chain_double_dash
 70
   64
  3
------------ -- -- -------------
 72
   65
 73
    6
 40
23.5
 49
12
 49
-1.5
 49
3.5
 49
-1.5
 49
3.5
 49
-1.5
  0
LTYPE
  2
dashed_dotted
 70
   64
  3
-----------     -     ----------
 72
   65
 73
    4
 40
9.25
 49
6
 49
-1.5
 49
0.25
 49
-1.5
  0
LTYPE
  2
double-dashed_dotted
 70
   64
  3
------   -----------   -   -----
 72
   65
 73
    6
 40
16.75
 49
6
 49
-1.5
 49
6
 49
-1.5
 49
0.25
 49
-1.5
  0
LTYPE
  2
dashed_double-dotted
 70
   64
  3
---------    -    -    ---------
 72
   65
 73
    6
 40
11
 49
6
 49
-1.5
 49
0.25
 49
-1.5
 49
0.25
 49
-1.5
  0
LTYPE
  2
double-dashed_double-dotted
 70
   64
  3
-----   ---------   -   -   ----
 72
   65
 73
    8
 40
18.5
 49
6
 49
-1.5
 49
6
 49
-1.5
 49
0.25
 49
-1.5
 49
0.25
 49
-1.5
  0
LTYPE
  2
dashed_triplicate-dotted
 70
   64
  3
-------    -    -    -    ------
 72
   65
 73
    8
 40
12.75
 49
6
 49
-1.5
 49
0.25
 49
-1.5
 49
0.25
 49
-1.5
 49
0.25
 49
-1.5
  0
LTYPE
  2
double-dashed_triplicate-dotted
 70
   64
  3
-----  ---------  -  -  -  -----
 72
   65
 73
   10
 40
20.25
 49
6
 49
-1.5
 49
6
 49
-1.5
 49
0.25
 49
-1.5
 49
0.25
 49
-1.5
 49
0.25
 49
-1.5
  0
LTYPE
  2
undefined
 70
   64
  3
--------------------------------
 72
   65
 73
    0
 40
0
  0
LTYPE
  2
_
 70
   64
  3
                                
 72
   65
 73
    0
 40
0
  0
LTYPE
  2
__18
 70
   64
  3
                                
 72
   65
 73
    0
 40
0
  0
LTYPE
  2
__19
 70
   64
  3
                                
 72
   65
 73
    0
 40
0
  0
LTYPE
  2
__20
 70
   64
  3
                                
 72
   65
 73
    0
 40
0
  0
LTYPE
  2
__21
 70
   64
  3
                                
 72
   65
 73
    0
 40
0
  0
LTYPE
  2
__22
 70
   64
  3
                                
 72
   65
 73
    0
 40
0
  0
LTYPE
  2
__23
 70
   64
  3
                                
 72
   65
 73
    0
 40
0
  0
LTYPE
  2
__24
 70
   64
  3
                                
 72
   65
 73
    0
 40
0
  0
LTYPE
  2
__25
 70
   64
  3
                                
 72
   65
 73
    0
 40
0
  0
LTYPE
  2
__26
 70
   64
  3
                                
 72
   65
 73
    0
 40
0
  0
LTYPE
  2
__27
 70
   64
  3
                                
 72
   65
 73
    0
 40
0
  0
LTYPE
  2
__28
 70
   64
  3
                                
 72
   65
 73
    0
 40
0
  0
LTYPE
  2
__29
 70
   64
  3
                                
 72
   65
 73
    0
 40
0
  0
LTYPE
  2
__30
 70
   64
  3
                                
 72
   65
 73
    0
 40
0
  0
LTYPE
  2
__31
 70
   64
  3
                                
 72
   65
 73
    0
 40
0
  0
LTYPE
  2
__32
 70
   64
  3
                                
 72
   65
 73
    0
 40
0
  0
ENDTAB
  0
TABLE
  2
STYLE
  5
3
100
AcDbSymbolTable
 70
     1
  0
STYLE
  5
10
100
AcDbSymbolTableRecord
100
AcDbTextStyleTableRecord
  2
STANDARD
 70
     0
 40
0.0
 41
1.0
 50
0.0
 71
     0
 42
0.2
  3
txt
  4
bigfont.shx
  0
STYLE
  5
26
100
AcDbSymbolTableRecord
100
AcDbTextStyleTableRecord
  2
TATEGAKI
 70
    68
 40
0.0
 41
1.0
 50
0.0
 71
     0
 42
1.0
  3
txt
  4
bigfont.shx
  0
ENDTAB
  0
TABLE
  2
LAYER
 70
    2
  0
LAYER
  2
_0-0_
 70
   64
 62
    7
  6
CONTINUOUS
  0
LAYER
  2
ADD_LINE
 70
   64
 62
    7
  6
CONTINUOUS
  0
ENDTAB
  0
ENDSEC
  0
SECTION
  2
BLOCKS
  0
ENDSEC
  0
SECTION
  2
ENTITIES
  0
LINE
  8
_0-0_
  6
CONTINUOUS
 62
    4
 10
392032.34786990564
 20
282628
 11
392482.34786990564
 21
282628
  0
LINE
  8
_0-0_
  6
CONTINUOUS
 62
    4
 10
392032.34786990564
 20
282628
 11
392257.34786990564
 21
283017.71143170301
  0
LINE
  8
_0-0_
  6
CONTINUOUS
 62
    4
 10
392482.34786990564
 20
282628
 11
392257.34786990564
 21
283017.71143170301
  0
LINE
  8
_0-0_
  6
CONTINUOUS
 62
    4
 10
392582.34786990564
 20
282628
 11
392602.34786990564
 21
282628
  0
LINE
  8
_0-0_
  6
CONTINUOUS
 62
    4
 10
392582.34786990564
 20
282628
 11
392582.34786990564
 21
283017.71143170301
  0
LINE
  8
_0-0_
  6
CONTINUOUS
 62
    4
 10
392602.34786990564
 20
282628
 11
392602.34786990564
 21
283017.71143170301
  0
LINE
  8
_0-0_
  6
CONTINUOUS
 62
    4
 10
392582.34786990564
 20
283017.71143170301
 11
392602.34786990564
 21
283017.71143170301
  0
LINE
  8
_0-0_
  6
CONTINUOUS
 62
    4
 10
392032.34786990564
 20
282578
 11
392032.34786990564
 21
282528
  0
LINE
  8
_0-0_
  6
CONTINUOUS
 62
    4
 10
392482.34786990564
 20
282578
 11
392482.34786990564
 21
282528
  0
LINE
  8
_0-0_
  6
CONTINUOUS
 62
    4
 10
392032.34786990564
 20
282528
 11
392482.34786990564
 21
282528
  0
LINE
  8
_0-0_
  6
CONTINUOUS
 62
    4
 10
392034.94616092124
 20
282528
 11
392034.94616092124
 21
282528
  0
LINE
  8
_0-0_
  6
CONTINUOUS
 62
    4
 10
392034.94616092124
 20
282528
 11
392034.90668704238
 21
282528.45118849992
  0
LINE
  8
_0-0_
  6
CONTINUOUS
 62
    4
 10
392034.90668704238
 20
282528.45118849992
 11
392034.78946479969
 21
282528.88866786554
  0
LINE
  8
_0-0_
  6
CONTINUOUS
 62
    4
 10
392034.78946479969
 20
282528.88866786554
 11
392034.59805593162
 21
282529.2991455078
  0
LINE
  8
_0-0_
  6
CONTINUOUS
 62
    4
 10
392034.59805593162
 20
282529.2991455078
 11
392034.33827629976
 21
282529.6701492712
  0
LINE
  8
_0-0_
  6
CONTINUOUS
 62
    4
 10
392034.33827629976
 20
282529.6701492712
 11
392034.01801917684
 21
282529.99040639412
  0
LINE
  8
_0-0_
  6
CONTINUOUS
 62
    4
 10
392034.01801917684
 20
282529.99040639412
 11
392033.64701541344
 21
282530.25018602598
  0
LINE
  8
_0-0_
  6
CONTINUOUS
 62
    4
 10
392033.64701541344
 20
282530.25018602598
 11
392033.23653777118
 21
282530.44159489404
  0
LINE
  8
_0-0_
  6
CONTINUOUS
 62
    4
 10
392033.23653777118
 20
282530.44159489404
 11
392032.79905840557
 21
282530.55881713674
  0
LINE
  8
_0-0_
  6
CONTINUOUS
 62
    4
 10
392032.79905840557
 20
282530.55881713674
 11
392032.34786990564
 21
282530.5982910156
  0
LINE
  8
_0-0_
  6
CONTINUOUS
 62
    4
 10
392032.34786990564
 20
282530.5982910156
 11
392031.89668140572
 21
282530.55881713674
  0
LINE
  8
_0-0_
  6
CONTINUOUS
 62
    4
 10
392031.89668140572
 20
282530.55881713674
 11
392031.4592020401
 21
282530.44159489404
  0
LINE
  8
_0-0_
  6
CONTINUOUS
 62
    4
 10
392031.4592020401
 20
282530.44159489404
 11
392031.04872439784
 21
282530.25018602598
  0
LINE
  8
_0-0_
  6
CONTINUOUS
 62
    4
 10
392031.04872439784
 20
282530.25018602598
 11
392030.67772063444
 21
282529.99040639412
  0
LINE
  8
_0-0_
  6
CONTINUOUS
 62
    4
 10
392030.67772063444
 20
282529.99040639412
 11
392030.35746351152
 21
282529.6701492712
  0
LINE
  8
_0-0_
  6
CONTINUOUS
 62
    4
 10
392030.35746351152
 20
282529.6701492712
 11
392030.09768387966
 21
282529.2991455078
  0
LINE
  8
_0-0_
  6
CONTINUOUS
 62
    4
 10
392030.09768387966
 20
282529.2991455078
 11
392029.9062750116
 21
282528.88866786554
  0
LINE
  8
_0-0_
  6
CONTINUOUS
 62
    4
 10
392029.9062750116
 20
282528.88866786554
 11
392029.7890527689
 21
282528.45118849992
  0
LINE
  8
_0-0_
  6
CONTINUOUS
 62
    4
 10
392029.7890527689
 20
282528.45118849992
 11
392029.74957889004
 21
282528
  0
LINE
  8
_0-0_
  6
CONTINUOUS
 62
    4
 10
392029.74957889004
 20
282528
 11
392029.7890527689
 21
282527.54881150008
  0
LINE
  8
_0-0_
  6
CONTINUOUS
 62
    4
 10
392029.7890527689
 20
282527.54881150008
 11
392029.9062750116
 21
282527.11133213446
  0
LINE
  8
_0-0_
  6
CONTINUOUS
 62
    4
 10
392029.9062750116
 20
282527.11133213446
 11
392030.09768387966
 21
282526.7008544922
  0
LINE
  8
_0-0_
  6
CONTINUOUS
 62
    4
 10
392030.09768387966
 20
282526.7008544922
 11
392030.35746351152
 21
282526.3298507288
  0
LINE
  8
_0-0_
  6
CONTINUOUS
 62
    4
 10
392030.35746351152
 20
282526.3298507288
 11
392030.67772063444
 21
282526.00959360588
  0
LINE
  8
_0-0_
  6
CONTINUOUS
 62
    4
 10
392030.67772063444
 20
282526.00959360588
 11
392031.04872439784
 21
282525.74981397402
  0
LINE
  8
_0-0_
  6
CONTINUOUS
 62
    4
 10
392031.04872439784
 20
282525.74981397402
 11
392031.4592020401
 21
282525.55840510596
  0
LINE
  8
_0-0_
  6
CONTINUOUS
 62
    4
 10
392031.4592020401
 20
282525.55840510596
 11
392031.89668140572
 21
282525.44118286326
  0
LINE
  8
_0-0_
  6
CONTINUOUS
 62
    4
 10
392031.89668140572
 20
282525.44118286326
 11
392032.34786990564
 21
282525.4017089844
  0
LINE
  8
_0-0_
  6
CONTINUOUS
 62
    4
 10
392032.34786990564
 20
282525.4017089844
 11
392032.79905840557
 21
282525.44118286326
  0
LINE
  8
_0-0_
  6
CONTINUOUS
 62
    4
 10
392032.79905840557
 20
282525.44118286326
 11
392033.23653777118
 21
282525.55840510596
  0
LINE
  8
_0-0_
  6
CONTINUOUS
 62
    4
 10
392033.23653777118
 20
282525.55840510596
 11
392033.64701541344
 21
282525.74981397402
  0
LINE
  8
_0-0_
  6
CONTINUOUS
 62
    4
 10
392033.64701541344
 20
282525.74981397402
 11
392034.01801917684
 21
282526.00959360588
  0
LINE
  8
_0-0_
  6
CONTINUOUS
 62
    4
 10
392034.01801917684
 20
282526.00959360588
 11
392034.33827629976
 21
282526.3298507288
  0
LINE
  8
_0-0_
  6
CONTINUOUS
 62
    4
 10
392034.33827629976
 20
282526.3298507288
 11
392034.59805593162
 21
282526.7008544922
  0
LINE
  8
_0-0_
  6
CONTINUOUS
 62
    4
 10
392034.59805593162
 20
282526.7008544922
 11
392034.78946479969
 21
282527.11133213446
  0
LINE
  8
_0-0_
  6
CONTINUOUS
 62
    4
 10
392034.78946479969
 20
282527.11133213446
 11
392034.90668704238
 21
282527.54881150008
  0
LINE
  8
_0-0_
  6
CONTINUOUS
 62
    4
 10
392034.90668704238
 20
282527.54881150008
 11
392034.94616092124
 21
282528
  0
LINE
  8
_0-0_
  6
CONTINUOUS
 62
    4
 10
392034.94616092124
 20
282528
 11
392034.94616092124
 21
282528
  0
LINE
  8
_0-0_
  6
CONTINUOUS
 62
    4
 10
392484.94616092124
 20
282528
 11
392484.94616092124
 21
282528
  0
LINE
  8
_0-0_
  6
CONTINUOUS
 62
    4
 10
392484.94616092124
 20
282528
 11
392484.90668704238
 21
282528.45118849992
  0
LINE
  8
_0-0_
  6
CONTINUOUS
 62
    4
 10
392484.90668704238
 20
282528.45118849992
 11
392484.78946479969
 21
282528.88866786554
  0
LINE
  8
_0-0_
  6
CONTINUOUS
 62
    4
 10
392484.78946479969
 20
282528.88866786554
 11
392484.59805593162
 21
282529.2991455078
  0
LINE
  8
_0-0_
  6
CONTINUOUS
 62
    4
 10
392484.59805593162
 20
282529.2991455078
 11
392484.33827629976
 21
282529.6701492712
  0
LINE
  8
_0-0_
  6
CONTINUOUS
 62
    4
 10
392484.33827629976
 20
282529.6701492712
 11
392484.01801917684
 21
282529.99040639412
  0
LINE
  8
_0-0_
  6
CONTINUOUS
 62
    4
 10
392484.01801917684
 20
282529.99040639412
 11
392483.64701541344
 21
282530.25018602598
  0
LINE
  8
_0-0_
  6
CONTINUOUS
 62
    4
 10
392483.64701541344
 20
282530.25018602598
 11
392483.23653777118
 21
282530.44159489404
  0
LINE
  8
_0-0_
  6
CONTINUOUS
 62
    4
 10
392483.23653777118
 20
282530.44159489404
 11
392482.79905840557
 21
282530.55881713674
  0
LINE
  8
_0-0_
  6
CONTINUOUS
 62
    4
 10
392482.79905840557
 20
282530.55881713674
 11
392482.34786990564
 21
282530.5982910156
  0
LINE
  8
_0-0_
  6
CONTINUOUS
 62
    4
 10
392482.34786990564
 20
282530.5982910156
 11
392481.89668140572
 21
282530.55881713674
  0
LINE
  8
_0-0_
  6
CONTINUOUS
 62
    4
 10
392481.89668140572
 20
282530.55881713674
 11
392481.4592020401
 21
282530.44159489404
  0
LINE
  8
_0-0_
  6
CONTINUOUS
 62
    4
 10
392481.4592020401
 20
282530.44159489404
 11
392481.04872439784
 21
282530.25018602598
  0
LINE
  8
_0-0_
  6
CONTINUOUS
 62
    4
 10
392481.04872439784
 20
282530.25018602598
 11
392480.67772063444
 21
282529.99040639412
  0
LINE
  8
_0-0_
  6
CONTINUOUS
 62
    4
 10
392480.67772063444
 20
282529.99040639412
 11
392480.35746351152
 21
282529.6701492712
  0
LINE
  8
_0-0_
  6
CONTINUOUS
 62
    4
 10
392480.35746351152
 20
282529.6701492712
 11
392480.09768387966
 21
282529.2991455078
  0
LINE
  8
_0-0_
  6
CONTINUOUS
 62
    4
 10
392480.09768387966
 20
282529.2991455078
 11
392479.9062750116
 21
282528.88866786554
  0
LINE
  8
_0-0_
  6
CONTINUOUS
 62
    4
 10
392479.9062750116
 20
282528.88866786554
 11
392479.7890527689
 21
282528.45118849992
  0
LINE
  8
_0-0_
  6
CONTINUOUS
 62
    4
 10
392479.7890527689
 20
282528.45118849992
 11
392479.74957889004
 21
282528
  0
LINE
  8
_0-0_
  6
CONTINUOUS
 62
    4
 10
392479.74957889004
 20
282528
 11
392479.7890527689
 21
282527.54881150008
  0
LINE
  8
_0-0_
  6
CONTINUOUS
 62
    4
 10
392479.7890527689
 20
282527.54881150008
 11
392479.9062750116
 21
282527.11133213446
  0
LINE
  8
_0-0_
  6
CONTINUOUS
 62
    4
 10
392479.9062750116
 20
282527.11133213446
 11
392480.09768387966
 21
282526.7008544922
  0
LINE
  8
_0-0_
  6
CONTINUOUS
 62
    4
 10
392480.09768387966
 20
282526.7008544922
 11
392480.35746351152
 21
282526.3298507288
  0
LINE
  8
_0-0_
  6
CONTINUOUS
 62
    4
 10
392480.35746351152
 20
282526.3298507288
 11
392480.67772063444
 21
282526.00959360588
  0
LINE
  8
_0-0_
  6
CONTINUOUS
 62
    4
 10
392480.67772063444
 20
282526.00959360588
 11
392481.04872439784
 21
282525.74981397402
  0
LINE
  8
_0-0_
  6
CONTINUOUS
 62
    4
 10
392481.04872439784
 20
282525.74981397402
 11
392481.4592020401
 21
282525.55840510596
  0
LINE
  8
_0-0_
  6
CONTINUOUS
 62
    4
 10
392481.4592020401
 20
282525.55840510596
 11
392481.89668140572
 21
282525.44118286326
  0
LINE
  8
_0-0_
  6
CONTINUOUS
 62
    4
 10
392481.89668140572
 20
282525.44118286326
 11
392482.34786990564
 21
282525.4017089844
  0
LINE
  8
_0-0_
  6
CONTINUOUS
 62
    4
 10
392482.34786990564
 20
282525.4017089844
 11
392482.79905840557
 21
282525.44118286326
  0
LINE
  8
_0-0_
  6
CONTINUOUS
 62
    4
 10
392482.79905840557
 20
282525.44118286326
 11
392483.23653777118
 21
282525.55840510596
  0
LINE
  8
_0-0_
  6
CONTINUOUS
 62
    4
 10
392483.23653777118
 20
282525.55840510596
 11
392483.64701541344
 21
282525.74981397402
  0
LINE
  8
_0-0_
  6
CONTINUOUS
 62
    4
 10
392483.64701541344
 20
282525.74981397402
 11
392484.01801917684
 21
282526.00959360588
  0
LINE
  8
_0-0_
  6
CONTINUOUS
 62
    4
 10
392484.01801917684
 20
282526.00959360588
 11
392484.33827629976
 21
282526.3298507288
  0
LINE
  8
_0-0_
  6
CONTINUOUS
 62
    4
 10
392484.33827629976
 20
282526.3298507288
 11
392484.59805593162
 21
282526.7008544922
  0
LINE
  8
_0-0_
  6
CONTINUOUS
 62
    4
 10
392484.59805593162
 20
282526.7008544922
 11
392484.78946479969
 21
282527.11133213446
  0
LINE
  8
_0-0_
  6
CONTINUOUS
 62
    4
 10
392484.78946479969
 20
282527.11133213446
 11
392484.90668704238
 21
282527.54881150008
  0
LINE
  8
_0-0_
  6
CONTINUOUS
 62
    4
 10
392484.90668704238
 20
282527.54881150008
 11
392484.94616092124
 21
282528
  0
LINE
  8
_0-0_
  6
CONTINUOUS
 62
    4
 10
392484.94616092124
 20
282528
 11
392484.94616092124
 21
282528
  0
TEXT
  8
_0-0_
 62
    7
 10
392231.05490115564
 20
282529
 40
35.842222222222226
 41
0.9781003937007872
 50
0
  1
450
  0
LINE
  8
_0-0_
  6
CONTINUOUS
 62
    4
 10
392582.34786990564
 20
282578
 11
392582.34786990564
 21
282528
  0
LINE
  8
_0-0_
  6
CONTINUOUS
 62
    4
 10
392602.34786990564
 20
282578
 11
392602.34786990564
 21
282528
  0
LINE
  8
_0-0_
  6
CONTINUOUS
 62
    4
 10
392582.34786990564
 20
282528
 11
392602.34786990564
 21
282528
  0
LINE
  8
_0-0_
  6
CONTINUOUS
 62
    4
 10
392584.94616092124
 20
282528
 11
392584.94616092124
 21
282528
  0
LINE
  8
_0-0_
  6
CONTINUOUS
 62
    4
 10
392584.94616092124
 20
282528
 11
392584.90668704238
 21
282528.45118849992
  0
LINE
  8
_0-0_
  6
CONTINUOUS
 62
    4
 10
392584.90668704238
 20
282528.45118849992
 11
392584.78946479969
 21
282528.88866786554
  0
LINE
  8
_0-0_
  6
CONTINUOUS
 62
    4
 10
392584.78946479969
 20
282528.88866786554
 11
392584.59805593162
 21
282529.2991455078
  0
LINE
  8
_0-0_
  6
CONTINUOUS
 62
    4
 10
392584.59805593162
 20
282529.2991455078
 11
392584.33827629976
 21
282529.6701492712
  0
LINE
  8
_0-0_
  6
CONTINUOUS
 62
    4
 10
392584.33827629976
 20
282529.6701492712
 11
392584.01801917684
 21
282529.99040639412
  0
LINE
  8
_0-0_
  6
CONTINUOUS
 62
    4
 10
392584.01801917684
 20
282529.99040639412
 11
392583.64701541344
 21
282530.25018602598
  0
LINE
  8
_0-0_
  6
CONTINUOUS
 62
    4
 10
392583.64701541344
 20
282530.25018602598
 11
392583.23653777118
 21
282530.44159489404
  0
LINE
  8
_0-0_
  6
CONTINUOUS
 62
    4
 10
392583.23653777118
 20
282530.44159489404
 11
392582.79905840557
 21
282530.55881713674
  0
LINE
  8
_0-0_
  6
CONTINUOUS
 62
    4
 10
392582.79905840557
 20
282530.55881713674
 11
392582.34786990564
 21
282530.5982910156
  0
LINE
  8
_0-0_
  6
CONTINUOUS
 62
    4
 10
392582.34786990564
 20
282530.5982910156
 11
392581.89668140572
 21
282530.55881713674
  0
LINE
  8
_0-0_
  6
CONTINUOUS
 62
    4
 10
392581.89668140572
 20
282530.55881713674
 11
392581.4592020401
 21
282530.44159489404
  0
LINE
  8
_0-0_
  6
CONTINUOUS
 62
    4
 10
392581.4592020401
 20
282530.44159489404
 11
392581.04872439784
 21
282530.25018602598
  0
LINE
  8
_0-0_
  6
CONTINUOUS
 62
    4
 10
392581.04872439784
 20
282530.25018602598
 11
392580.67772063444
 21
282529.99040639412
  0
LINE
  8
_0-0_
  6
CONTINUOUS
 62
    4
 10
392580.67772063444
 20
282529.99040639412
 11
392580.35746351152
 21
282529.6701492712
  0
LINE
  8
_0-0_
  6
CONTINUOUS
 62
    4
 10
392580.35746351152
 20
282529.6701492712
 11
392580.09768387966
 21
282529.2991455078
  0
LINE
  8
_0-0_
  6
CONTINUOUS
 62
    4
 10
392580.09768387966
 20
282529.2991455078
 11
392579.9062750116
 21
282528.88866786554
  0
LINE
  8
_0-0_
  6
CONTINUOUS
 62
    4
 10
392579.9062750116
 20
282528.88866786554
 11
392579.7890527689
 21
282528.45118849992
  0
LINE
  8
_0-0_
  6
CONTINUOUS
 62
    4
 10
392579.7890527689
 20
282528.45118849992
 11
392579.74957889004
 21
282528
  0
LINE
  8
_0-0_
  6
CONTINUOUS
 62
    4
 10
392579.74957889004
 20
282528
 11
392579.7890527689
 21
282527.54881150008
  0
LINE
  8
_0-0_
  6
CONTINUOUS
 62
    4
 10
392579.7890527689
 20
282527.54881150008
 11
392579.9062750116
 21
282527.11133213446
  0
LINE
  8
_0-0_
  6
CONTINUOUS
 62
    4
 10
392579.9062750116
 20
282527.11133213446
 11
392580.09768387966
 21
282526.7008544922
  0
LINE
  8
_0-0_
  6
CONTINUOUS
 62
    4
 10
392580.09768387966
 20
282526.7008544922
 11
392580.35746351152
 21
282526.3298507288
  0
LINE
  8
_0-0_
  6
CONTINUOUS
 62
    4
 10
392580.35746351152
 20
282526.3298507288
 11
392580.67772063444
 21
282526.00959360588
  0
LINE
  8
_0-0_
  6
CONTINUOUS
 62
    4
 10
392580.67772063444
 20
282526.00959360588
 11
392581.04872439784
 21
282525.74981397402
  0
LINE
  8
_0-0_
  6
CONTINUOUS
 62
    4
 10
392581.04872439784
 20
282525.74981397402
 11
392581.4592020401
 21
282525.55840510596
  0
LINE
  8
_0-0_
  6
CONTINUOUS
 62
    4
 10
392581.4592020401
 20
282525.55840510596
 11
392581.89668140572
 21
282525.44118286326
  0
LINE
  8
_0-0_
  6
CONTINUOUS
 62
    4
 10
392581.89668140572
 20
282525.44118286326
 11
392582.34786990564
 21
282525.4017089844
  0
LINE
  8
_0-0_
  6
CONTINUOUS
 62
    4
 10
392582.34786990564
 20
282525.4017089844
 11
392582.79905840557
 21
282525.44118286326
  0
LINE
  8
_0-0_
  6
CONTINUOUS
 62
    4
 10
392582.79905840557
 20
282525.44118286326
 11
392583.23653777118
 21
282525.55840510596
  0
LINE
  8
_0-0_
  6
CONTINUOUS
 62
    4
 10
392583.23653777118
 20
282525.55840510596
 11
392583.64701541344
 21
282525.74981397402
  0
LINE
  8
_0-0_
  6
CONTINUOUS
 62
    4
 10
392583.64701541344
 20
282525.74981397402
 11
392584.01801917684
 21
282526.00959360588
  0
LINE
  8
_0-0_
  6
CONTINUOUS
 62
    4
 10
392584.01801917684
 20
282526.00959360588
 11
392584.33827629976
 21
282526.3298507288
  0
LINE
  8
_0-0_
  6
CONTINUOUS
 62
    4
 10
392584.33827629976
 20
282526.3298507288
 11
392584.59805593162
 21
282526.7008544922
  0
LINE
  8
_0-0_
  6
CONTINUOUS
 62
    4
 10
392584.59805593162
 20
282526.7008544922
 11
392584.78946479969
 21
282527.11133213446
  0
LINE
  8
_0-0_
  6
CONTINUOUS
 62
    4
 10
392584.78946479969
 20
282527.11133213446
 11
392584.90668704238
 21
282527.54881150008
  0
LINE
  8
_0-0_
  6
CONTINUOUS
 62
    4
 10
392584.90668704238
 20
282527.54881150008
 11
392584.94616092124
 21
282528
  0
LINE
  8
_0-0_
  6
CONTINUOUS
 62
    4
 10
392584.94616092124
 20
282528
 11
392584.94616092124
 21
282528
  0
LINE
  8
_0-0_
  6
CONTINUOUS
 62
    4
 10
392604.94616092124
 20
282528
 11
392604.94616092124
 21
282528
  0
LINE
  8
_0-0_
  6
CONTINUOUS
 62
    4
 10
392604.94616092124
 20
282528
 11
392604.90668704238
 21
282528.45118849992
  0
LINE
  8
_0-0_
  6
CONTINUOUS
 62
    4
 10
392604.90668704238
 20
282528.45118849992
 11
392604.78946479969
 21
282528.88866786554
  0
LINE
  8
_0-0_
  6
CONTINUOUS
 62
    4
 10
392604.78946479969
 20
282528.88866786554
 11
392604.59805593162
 21
282529.2991455078
  0
LINE
  8
_0-0_
  6
CONTINUOUS
 62
    4
 10
392604.59805593162
 20
282529.2991455078
 11
392604.33827629976
 21
282529.6701492712
  0
LINE
  8
_0-0_
  6
CONTINUOUS
 62
    4
 10
392604.33827629976
 20
282529.6701492712
 11
392604.01801917684
 21
282529.99040639412
  0
LINE
  8
_0-0_
  6
CONTINUOUS
 62
    4
 10
392604.01801917684
 20
282529.99040639412
 11
392603.64701541344
 21
282530.25018602598
  0
LINE
  8
_0-0_
  6
CONTINUOUS
 62
    4
 10
392603.64701541344
 20
282530.25018602598
 11
392603.23653777118
 21
282530.44159489404
  0
LINE
  8
_0-0_
  6
CONTINUOUS
 62
    4
 10
392603.23653777118
 20
282530.44159489404
 11
392602.79905840557
 21
282530.55881713674
  0
LINE
  8
_0-0_
  6
CONTINUOUS
 62
    4
 10
392602.79905840557
 20
282530.55881713674
 11
392602.34786990564
 21
282530.5982910156
  0
LINE
  8
_0-0_
  6
CONTINUOUS
 62
    4
 10
392602.34786990564
 20
282530.5982910156
 11
392601.89668140572
 21
282530.55881713674
  0
LINE
  8
_0-0_
  6
CONTINUOUS
 62
    4
 10
392601.89668140572
 20
282530.55881713674
 11
392601.4592020401
 21
282530.44159489404
  0
LINE
  8
_0-0_
  6
CONTINUOUS
 62
    4
 10
392601.4592020401
 20
282530.44159489404
 11
392601.04872439784
 21
282530.25018602598
  0
LINE
  8
_0-0_
  6
CONTINUOUS
 62
    4
 10
392601.04872439784
 20
282530.25018602598
 11
392600.67772063444
 21
282529.99040639412
  0
LINE
  8
_0-0_
  6
CONTINUOUS
 62
    4
 10
392600.67772063444
 20
282529.99040639412
 11
392600.35746351152
 21
282529.6701492712
  0
LINE
  8
_0-0_
  6
CONTINUOUS
 62
    4
 10
392600.35746351152
 20
282529.6701492712
 11
392600.09768387966
 21
282529.2991455078
  0
LINE
  8
_0-0_
  6
CONTINUOUS
 62
    4
 10
392600.09768387966
 20
282529.2991455078
 11
392599.9062750116
 21
282528.88866786554
  0
LINE
  8
_0-0_
  6
CONTINUOUS
 62
    4
 10
392599.9062750116
 20
282528.88866786554
 11
392599.7890527689
 21
282528.45118849992
  0
LINE
  8
_0-0_
  6
CONTINUOUS
 62
    4
 10
392599.7890527689
 20
282528.45118849992
 11
392599.74957889004
 21
282528
  0
LINE
  8
_0-0_
  6
CONTINUOUS
 62
    4
 10
392599.74957889004
 20
282528
 11
392599.7890527689
 21
282527.54881150008
  0
LINE
  8
_0-0_
  6
CONTINUOUS
 62
    4
 10
392599.7890527689
 20
282527.54881150008
 11
392599.9062750116
 21
282527.11133213446
  0
LINE
  8
_0-0_
  6
CONTINUOUS
 62
    4
 10
392599.9062750116
 20
282527.11133213446
 11
392600.09768387966
 21
282526.7008544922
  0
LINE
  8
_0-0_
  6
CONTINUOUS
 62
    4
 10
392600.09768387966
 20
282526.7008544922
 11
392600.35746351152
 21
282526.3298507288
  0
LINE
  8
_0-0_
  6
CONTINUOUS
 62
    4
 10
392600.35746351152
 20
282526.3298507288
 11
392600.67772063444
 21
282526.00959360588
  0
LINE
  8
_0-0_
  6
CONTINUOUS
 62
    4
 10
392600.67772063444
 20
282526.00959360588
 11
392601.04872439784
 21
282525.74981397402
  0
LINE
  8
_0-0_
  6
CONTINUOUS
 62
    4
 10
392601.04872439784
 20
282525.74981397402
 11
392601.4592020401
 21
282525.55840510596
  0
LINE
  8
_0-0_
  6
CONTINUOUS
 62
    4
 10
392601.4592020401
 20
282525.55840510596
 11
392601.89668140572
 21
282525.44118286326
  0
LINE
  8
_0-0_
  6
CONTINUOUS
 62
    4
 10
392601.89668140572
 20
282525.44118286326
 11
392602.34786990564
 21
282525.4017089844
  0
LINE
  8
_0-0_
  6
CONTINUOUS
 62
    4
 10
392602.34786990564
 20
282525.4017089844
 11
392602.79905840557
 21
282525.44118286326
  0
LINE
  8
_0-0_
  6
CONTINUOUS
 62
    4
 10
392602.79905840557
 20
282525.44118286326
 11
392603.23653777118
 21
282525.55840510596
  0
LINE
  8
_0-0_
  6
CONTINUOUS
 62
    4
 10
392603.23653777118
 20
282525.55840510596
 11
392603.64701541344
 21
282525.74981397402
  0
LINE
  8
_0-0_
  6
CONTINUOUS
 62
    4
 10
392603.64701541344
 20
282525.74981397402
 11
392604.01801917684
 21
282526.00959360588
  0
LINE
  8
_0-0_
  6
CONTINUOUS
 62
    4
 10
392604.01801917684
 20
282526.00959360588
 11
392604.33827629976
 21
282526.3298507288
  0
LINE
  8
_0-0_
  6
CONTINUOUS
 62
    4
 10
392604.33827629976
 20
282526.3298507288
 11
392604.59805593162
 21
282526.7008544922
  0
LINE
  8
_0-0_
  6
CONTINUOUS
 62
    4
 10
392604.59805593162
 20
282526.7008544922
 11
392604.78946479969
 21
282527.11133213446
  0
LINE
  8
_0-0_
  6
CONTINUOUS
 62
    4
 10
392604.78946479969
 20
282527.11133213446
 11
392604.90668704238
 21
282527.54881150008
  0
LINE
  8
_0-0_
  6
CONTINUOUS
 62
    4
 10
392604.90668704238
 20
282527.54881150008
 11
392604.94616092124
 21
282528
  0
LINE
  8
_0-0_
  6
CONTINUOUS
 62
    4
 10
392604.94616092124
 20
282528
 11
392604.94616092124
 21
282528
  0
TEXT
  8
_0-0_
 62
    7
 10
392574.81922407233
 20
282529
 40
35.842222222222226
 41
0.9781003937007872
 50
0
  1
20
  0
TEXT
  8
_0-0_
 62
    7
 10
392163.80594275898
 20
283383.38284007419
 40
43.010666666666651
 41
0.8653609554815266
 50
0
  1
E-Triangle 20
  0
ENDSEC
  0
EOF
